PrimaNota.ru - самый крупный в мире бесплатный архив песенных текстов, аккордов, табулатур и нот


Iu - Missing Child - таба, видео

Регистрация Запомнить меня
Войти через:  Facebook Google Twitter Vk Yandex Mail.ru

Iu - Missing Child - таба, видео

Печатать
Просмотров: 289
"미아 (Missing Child) (Acoustic Version)" - IU

Tabbed by cate brown.
http://i.imgur.com/Ynjr5.jpg

Standard tuning
No capo

Video reference: http://www.youtube.com/watch?v=QQJLQ5lkIfI
Song reference: http://www.youtube.com/watch?v=BnX5NJJ2P4A

Intro:

e:--------0-------0---------0--------0---------0--------0---------0--------0---|
B:------0-------0---------0--------0---------0--------0---------0--------0-----|
G:----2-------2---------2--------2---------2--------2---------2--------2-------|
D:--------------------0--------------------------------------------------------|
A:--------------------------------------0--------------------------------------|
E:--2-------------------------------------------------------4------------------|

Verse:

e:--------0-------0---------0--------0---------0--------0---------0--------0---|
B:------0-------0---------0--------0---------0--------0---------0--------0-----|
G:----2-------2---------2--------2---------2--------2---------2--------2-------|
D:--------------------0--------0-----------------------------------------------|
A:--------------------------------------0---------0----------------------------|
E:--2-------2-----------------------------------------------4--------4---------|

Pre-chorus:

  Dsus2 | xx0230 |
  E     | 022100 |

Chorus:

  F#    | 244222 |                  | 244222 |
  A     | x02220 | or if you prefer | 577655 |
  E     | 022100 |  bar chords ---> | 0799-- |
  Emaj7 | 021100 |                  | 0699-- |

Bridge:

  B  (224442)
  D  (xx0232 or x57775)
  F#
  E

Outro: see intro
Добавлено: 04.04.2012
Другие материалы по этой песне:
  • Аккорды и текст

Страница создана 04.04.2012
http://primanota.ru/iu/missing-child-chords.htm
Привет, Гость.
Предлагаем пройти революционный курс по гитаре.
Подарок от PrimaNota.Ru, забирай!