PrimaNota.ru - самый крупный в мире бесплатный архив песенных текстов, аккордов, табулатур и нот


Its Alive - Pieces - текст песни, таба, видео

Регистрация Запомнить меня
Войти через:  Facebook Google Twitter Vk Yandex Mail.ru

Its Alive - Pieces - текст песни, таба, видео

Печатать
Просмотров: 193
Its Alive - Pieces
Drop D Tuning:  DADGBE

Here is where I tabbed this from.  The guitarist explains the song chord for
doesnt the singer song just like the (former) lead singer from Saosin that just recently 
the band???!!!

http://www.ultimate-guitar.tv/guitar_lessons/its_alive_pieces_guitar_lesson.html

INTRO - Part 1
Guitar 1 4x
E|------------------------------------------------------------|
B|-10---12---13-----------------------------------------------|
G|----9----9----9-12-9----------------------------------------|
D|------------------------------------------------------------|
A|------------------------------------------------------------|
D|------------------------------------------------------------|

Guitar 2 - with effect
E|------------------------------------------------------------|
B|------------------------------------------------------------|
G|------------------------------------------------------------|
D|------------------------------------------------------------|
A|-7----------------------------3-------------0---------------|
D|------------------------------------------------------------|

INTRO Part 2
Guitar 1
E|------------------------------------------------------------------------|
B|------------------------------------------------------------------------|
G|----------------------------------------------77777777----------77777-4-|
D|-7777777777777-----7777777777777------5555555-77777777-55555555-77777-0-|
A|-7777777777777-777-7777777777777-3333-3333333-55555555-33333333-55555-x-|
D|-7777777777777-555-7777777777777-2222-3333333----------33333333-------5-|

VERSE - Part 1
Guitar 1
Just hit the open A string over and over with 4 counts to open your wah pedal and 4
to close it.  Repeat throughout the verse.  AT :51, turn off the wah.
Guitar 1
E|------------------------------------------------------------|
B|------------------------------------------------------------|
G|------------------------------------------------------------|
D|------------------------------------------------------------|
A|-0----------------------------------------------------------|
D|------------------------------------------------------------|

VERSE - Part 2 - at :38 play INTRO Part 1 about 6x then go to the CHORUS

CHORUS
Guitar 1 Play INTRO Part 2 - 2x

VERSE - Same as 1st VERSE

CHORUS
Guitar 2 plays these octaves on this and the last CHORUS only.
E|----------------------------------------------|
B|----------------------------------------------|
G|-9-------12------9-------12------9------7-----|
D|-x-(32x)-x-(8x)--x-(8x)--x--(8x)-x-(5x)-x-----|
A|-7-------10------7-------10------7------5-----|
D|----------------------------------------------|

BRIDGE - Part 1
Guitar 1
E|-------------------------------------------------------------------|
B|-------------------------------------------------------------------|
G|-------------------------------------------------------------------|
D|-------------------------------------------------------------------|
A|-------------------------------------------------------------------|
D|33333333000000007775553332222333333333555555555777777777777-101010-|

Guitar 1
E|------------------------------------------------------------|
B|------------------------------------------------------------|
G|------------------------------------------------------------|
D|------------------------------------------------------------|
A|------------------------------------------------------------|
D|333333330000000077755533322223333333335---------------------|

BRIDGE - Part 2 - Palm Mute
Guitar 1
E|------------------------------------------------------------------|
B|------------------------------------------------------------------|
G|----------------------------------------------77777777----------7-|
D|-7777777777777-----7777777777777------5555555-77777777-55555555-7-|
A|-7777777777777-777-7777777777777-3333-3333333-55555555-33333333-5-|
D|-7777777777777-555-7777777777777-2223-3333333----------33333333---|
Guitar 2
E|------------------------------------------------------------|
B|-10---12---13---------10---12---13--------------------------|
G|----9----9----9-12-------9----9----9-12-9-------------------|
D|------------------------------------------------------------|
A|------------------------------------------------------------|
D|------------------------------------------------------------|

CHORUS
Guitar 1
E|------------------------------------------------------------------------|
B|------------------------------------------------------------------------|
G|----------------------------------------------77777777----------77777-4-|
D|-7777777777777-----7777777777777------5555555-77777777-55555555-77777-0-|
A|-7777777777777-777-7777777777777-3333-3333333-55555555-33333333-55555-x-|
D|-7777777777777-555-7777777777777-2222-3333333----------33333333-------5-|

Guitar 1
E|------------------------------------------------------------------------|
B|------------------------------------------------------------------------|
G|---------------------------------------------77777777----------77777-4--|
D|7777777777777-----7777777777777------5555555-77777777-55555555-77777-0-7|
A|7777777777777-777-7777777777777-3332-3333333-55555555-33333333-55555-x-7|
D|7777777777777-555-7777777777777-2223-3333333----------33333333-------5-7|
Добавлено: 18.05.2012
Другие материалы по этой песне:

Страница создана 18.05.2012
http://primanota.ru/its-alive/pieces-chords.htm
Привет, Гость.
Предлагаем пройти революционный курс по гитаре.
Подарок от PrimaNota.Ru, забирай!