PrimaNota.ru - самый крупный в мире бесплатный архив песенных текстов, аккордов, табулатур и нот


Its Alive - Liar - текст песни, таба, видео

Регистрация Запомнить меня
Войти через:  Facebook Google Twitter Vk Yandex Mail.ru

Its Alive - Liar - текст песни, таба, видео

Печатать
Просмотров: 236
Уроки эстрадного вокала в Санкт-Петербурге
Song:   Liar
Artis:  ItsAlive
Album:  Human Resources 2010
Tuning: Drop C




Intro[0:13-0:24]
-----------------------------|
-----------------------------|
-----------------------------|
-3-2-3-2-0-2~-0-2-0-3-2-2----|[x3]
-3-2-3-2-0-2~-0-2-0-3-2-2----|
-3-2-3-2-0-2~-0-2-0-3-2-2----|


Intro(4th time play this)
--------------------|
--------------------|
--------------------|
-3-2-3-2-0-0~-------|
-3-2-3-2-0-0~-------|
-3-2-3-2-0-0~-------|



Verse:Play the intro but palm muted[0:25-0:36]

Pre Chorus(Clean Part)[0:36-0:44]
----------------------------|
----------------------------|
-5~~------------------------|
-5~~--0~~---2~~-------------|
-3~~--0~~---2~~-------------|
------0~~---2~~-------------|

continued[0.45-0:47]
---------------------------|
---------------------------|
---------------------------|
-0-0-0---0-0-0-------------|
-0-0-0---0-0-0-------------|
-0-0-0---0-0-0-------------|


Chorus[0:48-1:11]
---------------------------|
---------------------------|
-----------5---------------|
-2----5----5----0----------|[x2]
-2----5----3----0----------|
-2----5---------0----------|

Repeat Intro once :D

Pre Chorus[1:24-1:35] *This time its distorted+palm muted*
----------------------|
----------------------|
-5--------------------|
-5--0---2-------------|
-3--0---2-------------|
----0---2-------------|

Chorus[1:36-1:59]

Bridge[2:00-2:33]
------------------------------------------------------|
------------------------------------------------------|
------------------------------------------------------|
-2~-2~--3~-3~-0~-3-2-2-2-2-2-2-2-2-3-3-3-3-3-3-3-3----|
-2~-2~--3~-3~-0~-3-2-2-2-2-2-2-2-2-3-3-3-3-3-3-3-3----|
-2~-2~--3~-3~-0~-3-2-2-2-2-2-2-2-2-3-3-3-3-3-3-3-3----|

------------------------------------------------------|
------------------------------------------------------|
------------------------------------------------------|
-2~-2~--3~-3~-0~-3-2-2-2-2-2-2-2-2-0-0-0-0-0-0-0-0----|
-2~-2~--3~-3~-0~-3-2-2-2-2-2-2-2-2-0-0-0-0-0-0-0-0----|
-2~-2~--3~-3~-0~-3-2-2-2-2-2-2-2-2-0-0-0-0-0-0-0-0----|


---------------------------------|
---------------------------------|
-9------12------5------7---------|
-x[x8]--xx-[x8]-x-[x8]-x-[x8]----|
-7------10------3------5---------|
---------------------------------|

Chorus[2:40-2:45]
-----------------------------|
-----------------------------|
--5~-------------------------|
--5~-0-----------------------|
--3~-0-----------------------|
-----0-----------------------|

Chorus[2:46-2:57]

Solo[2:57-3:14]
*You can also play Chorus behind the solo*
-------------------------------------------------------|
-------------------------------------------------------|
-11~-12~-11~-12~-11~-9~~---12~-11~-12~-11~-12~-11~-9~--|
-------------------------------------------------------|
-------------------------------------------------------|
-------------------------------------------------------|


---------------------------------------|
---------------------------------------|
-12~~~~---14~~~~~--13~-13~-13-13-13-13-|
---------------------------------------|
---------------------------------------|
---------------------------------------|

EnjoY :DDD
Добавлено: 24.07.2013
Вам также может быть интересно:
Другие материалы по этой песне:
  • Аккорды и текст

Страница создана 24.07.2013
http://primanota.ru/its-alive/liar-chords.htm
Привет, Гость.
Предлагаем пройти революционный курс по гитаре.
Подарок от PrimaNota.Ru, забирай!