PrimaNota.ru - самый крупный в мире бесплатный архив песенных текстов, аккордов, табулатур и нот


Itoiz - To Alice - бас-таба, видео

Регистрация Запомнить меня
Войти через:  Facebook Google Twitter Vk Yandex Mail.ru

Itoiz - To Alice - бас-таба, видео

Печатать
Просмотров: 26
Новый альбом группы 'Черный Кузнец' по культовому сериалу 'Сверхъестественное'!
Artist : Itoiz
Album : Musikaz Blai
Song : To Alice

[Intro]
 4/4
G|----------------|
D|----------------|
A|------wait------|
E|----------------|
  1 + 2 + 3 + 4 +  


[Verse] 0:28

G|----------------|----------------|----------------|----------------|
D|----------------|----------------|----------------|----------------|
A|----------------|----------------|----------------|----------------| x2
E|8-----8-8-----8-|8-----8-8-------|9-----9-9-----9-|9-----9-9-------|
  1 + 2 + 3 + 4 +  1 + 2 + 3 + 4 +  1 + 2 + 3 + 4 +  1 + 2 + 3 + 4 +


[Chorus]

G|----------------|----------------|----------------|----------------|
D|----------------|----------------|----------------|----------------|
A|----------------|----------------|----------------|----------------|
E|8-----8-8-----8-|8-----8-8-------|9-----9-9-------|7-----7-7-------|
  1 + 2 + 3 + 4 +  1 + 2 + 3 + 4 +  1 + 2 + 3 + 4 +  1 + 2 + 3 + 4 +

G|----------------|----------------|----------------|----------------|
D|----------------|----------------|7---------------|7---------------|
A|----------------|-----------/7---|----------------|----------------|
E|5-----5-5-------|5-----5-5-------|----------------|----------------|
  1 + 2 + 3 + 4 +  1 + 2 + 3 + 4 +  1 + 2 + 3 + 4 +  1 + 2 + 3 + 4 +

[Verse]

G|----------------|----------------|----------------|----------------|
D|----------------|----------------|----------------|----------------|
A|----------------|----------------|----------------|----------------| x2
E|8-----8-8-----8-|8-----8-8-------|9-----9-9-----9-|9-----9-9-------|
  1 + 2 + 3 + 4 +  1 + 2 + 3 + 4 +  1 + 2 + 3 + 4 +  1 + 2 + 3 + 4 +


[Chorus]

G|----------------|----------------|----------------|----------------|
D|----------------|----------------|----------------|----------------|
A|----------------|----------------|----------------|----------------|
E|8-----8-8-----8-|8-----8-8-------|9-----9-9-------|7-----7-7-------|
  1 + 2 + 3 + 4 +  1 + 2 + 3 + 4 +  1 + 2 + 3 + 4 +  1 + 2 + 3 + 4 +

G|----------------|----------------|----------------|----------------|
D|----------------|----------------|7---------------|7---------------|
A|----------------|-----------/7---|----------------|----------------|
E|5-----5-5-------|5-----5-5-------|----------------|----------------|
  1 + 2 + 3 + 4 +  1 + 2 + 3 + 4 +  1 + 2 + 3 + 4 +  1 + 2 + 3 + 4 +


[Interlude]

G|----------------|
D|----------------|
A|------wait------|
E|----------------|
  1 + 2 + 3 + 4 +  


[Verse] 1:47

G|----------------|----------------|----------------|----------------|
D|----------------|----------------|----------------|----------------|
A|----------------|----------------|----------------|----------------| x2
E|8-----8-8-----8-|8-----8-8-------|9-----9-9-----9-|9-----9-9-------|
  1 + 2 + 3 + 4 +  1 + 2 + 3 + 4 +  1 + 2 + 3 + 4 +  1 + 2 + 3 + 4 +


[Chorus]

G|----------------|----------------|----------------|----------------|
D|----------------|----------------|----------------|----------------|
A|----------------|----------------|----------------|----------------|
E|8-----8-8-----8-|8-----8-8-------|9-----9-9-------|7-----7-7-------|
  1 + 2 + 3 + 4 +  1 + 2 + 3 + 4 +  1 + 2 + 3 + 4 +  1 + 2 + 3 + 4 +

G|----------------|----------------|----------------|----------------|
D|----------------|----------------|7---------------|7---------------|
A|----------------|-----------/7---|----------------|----------------|
E|5-----5-5-------|5-----5-5-------|----------------|----------------|
  1 + 2 + 3 + 4 +  1 + 2 + 3 + 4 +  1 + 2 + 3 + 4 +  1 + 2 + 3 + 4 +


[Verse]

G|----------------|----------------|----------------|----------------|
D|----------------|----------------|----------------|----------------|
A|----------------|----------------|----------------|----------------| x2
E|8-----8-8-----8-|8-----8-8-------|9-----9-9-----9-|9-----9-9-------|
  1 + 2 + 3 + 4 +  1 + 2 + 3 + 4 +  1 + 2 + 3 + 4 +  1 + 2 + 3 + 4 +


[Chorus]

G|----------------|----------------|----------------|----------------|
D|----------------|----------------|----------------|----------------|
A|----------------|----------------|----------------|----------------|
E|8-----8-8-----8-|8-----8-8-------|9-----9-9-------|7-----7-7-------|
  1 + 2 + 3 + 4 +  1 + 2 + 3 + 4 +  1 + 2 + 3 + 4 +  1 + 2 + 3 + 4 +

G|----------------|----------------|----------------|----------------|
D|----------------|----------------|7---------------|7---------------|
A|----------------|-----------/7---|----------------|----------------|
E|5-----5-5-------|5-----5-5-------|----------------|----------------|
  1 + 2 + 3 + 4 +  1 + 2 + 3 + 4 +  1 + 2 + 3 + 4 +  1 + 2 + 3 + 4 +


[Sax Solo]

G|----------------|----------------|----------------|----------------|----|
D|----------------|----------------|----------------|----------------|    |
A|----------------|----------------|----------------|----------------| x2 |
E|8-----8-8-----8-|8-----8-8-------|9-----9-9-----9-|9-----9-9-------|    |
  1 + 2 + 3 + 4 +  1 + 2 + 3 + 4 +  1 + 2 + 3 + 4 +  1 + 2 + 3 + 4 +      |
                                                                          |
G|----------------|----------------|----------------|----------------|    |
D|----------------|----------------|----------------|----------------|    |
A|----------------|----------------|----------------|----------------|    | x2
E|8-----8-8-----8-|8-----8-8-------|9-----9-9-------|7-----7-7-------|    |
  1 + 2 + 3 + 4 +  1 + 2 + 3 + 4 +  1 + 2 + 3 + 4 +  1 + 2 + 3 + 4 +      |
                                                                          |
G|----------------|----------------|----------------|----------------|    |
D|----------------|----------------|7---------------|7---------------|    |
A|----------------|-----------/7---|----------------|----------------|    |
E|5-----5-5-------|5-----5-5-------|----------------|----------------|----|
  1 + 2 + 3 + 4 +  1 + 2 + 3 + 4 +  1 + 2 + 3 + 4 +  1 + 2 + 3 + 4 +


[Interlude]

G|----------------|
D|----------------|
A|------wait------|
E|----------------|
  1 + 2 + 3 + 4 +


[Outro] 3:52

G|----------------|----------------|----------------|----------------|----|
D|----------------|----------------|----------------|----------------|    |
A|----------------|----------------|----------------|----------------| x2 |
E|8-----8-8-------|8-----8-8-------|9-----9-9-------|9-----9-9-------|    |
  1 + 2 + 3 + 4 +  1 + 2 + 3 + 4 +  1 + 2 + 3 + 4 +  1 + 2 + 3 + 4 +      |
                                                                          |
G|----------------|----------------|----------------|----------------|    |
D|----------------|----------------|----------------|----------------|    |
A|----------------|----------------|----------------|----------------|    | repeat and fade out
E|8-----8-8-------|8-----8-8-------|9-----9-9-------|7-----7-7-------|    |
  1 + 2 + 3 + 4 +  1 + 2 + 3 + 4 +  1 + 2 + 3 + 4 +  1 + 2 + 3 + 4 +      |
                                                                          |
G|----------------|----------------|----------------|----------------|    |
D|----------------|----------------|7---------------|7---------------|    |
A|----------------|-----------/7---|----------------|----------------|    |
E|5-----5-5-------|5-----5-5-------|----------------|----------------|----|
  1 + 2 + 3 + 4 +  1 + 2 + 3 + 4 +  1 + 2 + 3 + 4 +  1 + 2 + 3 + 4 +


************************************

| /   Slide up

************************************
Добавлено: 21.01.2018
Другие материалы по этой песне:
  • Аккорды и текст

Страница создана 21.01.2018
http://primanota.ru/itoiz/to-alice-chords.htm
Привет, Гость.
Предлагаем пройти революционный курс по гитаре.
Подарок от PrimaNota.Ru, забирай!