PrimaNota.ru - самый крупный в мире бесплатный архив песенных текстов, аккордов, табулатур и нот


Itoiz - Larunbaten Azala - бас-таба, видео

Регистрация Запомнить меня
Войти через:  Facebook Google Twitter Vk Yandex Mail.ru

Itoiz - Larunbaten Azala - бас-таба, видео

Печатать
Просмотров: 25
Новый альбом группы 'Черный Кузнец' по культовому сериалу 'Сверхъестественное'!
Artist : Itoiz
Album : Musikaz Blai
Song : Larunbaten Azala

[Intro]
 4/4
G|----------------|----------------|
D|------------2h3-|--0-------------|
A|3h5---3h5-------|----------------| x7
E|----------------|----0---1---3h5-|
  1 + 2 + 3 + 4 +  1 + 2 + 3 + 4 +  

G|----------------|----------------|----------------|
D|----------------|----------------|----------------|
A|----4---7-------|----------------|----------------|
E|6-----------5-3-|----------------|----------------|
  1 + 2 + 3 + 4 +  1 + 2 + 3 + 4 +  1 + 2 + 3 + 4 +  

[Verse]
G|----------------|----------------|
D|----------------|----------------|
A|3h5---3h5-----3-|3-5-------------| x7
E|----------------|----------------|
  1 + 2 + 3 + 4 +  1 + 2 + 3 + 4 +  

G|----------------|----------------|
D|----------------|----------------|
A|3h5---3h5-----3-|3-5-------------|
E|----------------|--------------2-|
  1 + 2 + 3 + 4 +  1 + 2 + 3 + 4 + 

[Chorus]
G|----------------|----------------|----------------|----------------|
D|----------------|----------------|----------------|--------------2h|
A|--------------5h|6---------------|------6h7-------|----------------|
E|3---------------|------2-3-------|--------------2-|3---------------|
  1 + 2 + 3 + 4 +  1 + 2 + 3 + 4 +  1 + 2 + 3 + 4 +  1 + 2 + 3 + 4 +  

G|----------------|----------------|
D|3---------------|------4h5-------|
A|----------------|--------------x-|
E|------2-3-------|----------------|
  1 + 2 + 3 + 4 +  1 + 2 + 3 + 4 +  
 3/4
G|------------|------------|------------|------------|
D|------------|------------|------------|------------|
A|5-----------|3-----------|------------|3-----------| x2
E|------------|------------|6-----------|------------|
  1 + 2 + 3 +  1 + 2 + 3 +  1 + 2 + 3 +  1 + 2 + 3 +  

[Verse]
  4/4
G|----------------|----------------|
D|----------------|----------------|
A|3h5---3h5-----3-|3-5-------------| x7
E|----------------|----------------|
  1 + 2 + 3 + 4 +  1 + 2 + 3 + 4 +  

G|----------------|----------------|
D|----------------|----------------|
A|3h5---3h5-----3-|3-5-------------|
E|----------------|--------------2-|
  1 + 2 + 3 + 4 +  1 + 2 + 3 + 4 + 

[Chorus]
G|----------------|----------------|----------------|----------------|
D|----------------|----------------|----------------|--------------2h|
A|--------------5h|6---------------|------6h7-------|----------------|
E|3---------------|------2-3-------|--------------2-|3---------------|
  1 + 2 + 3 + 4 +  1 + 2 + 3 + 4 +  1 + 2 + 3 + 4 +  1 + 2 + 3 + 4 +  

G|----------------|----------------|
D|3---------------|------4h5-------|
A|----------------|--------------x-|
E|------2-3-------|----------------|
  1 + 2 + 3 + 4 +  1 + 2 + 3 + 4 +  
 3/4
G|------------|------------|------------|------------|
D|------------|------------|------------|------------|
A|5-----------|3-----------|------------|3-----------| x2
E|------------|------------|6-----------|------------|
  1 + 2 + 3 +  1 + 2 + 3 +  1 + 2 + 3 +  1 + 2 + 3 +  
               4/4
G|------------|----------------|----------------|----------------|
D|------------|----------------|----------------|----------------|
A|3-----------|----------------|----------------|----------------|
E|------------|5---------------|----------------|----------------|
  1 + 2 + 3 +  1 + 2 + 3 + 4 +  1 + 2 + 3 + 4 +  1 + 2 + 3 + 4 +  


[Guitar Solo]
G|----------------|----------------|
D|----------------|----------------|
A|3h5---3h5-----3-|3-5-------------| x7
E|----------------|----------------|
  1 + 2 + 3 + 4 +  1 + 2 + 3 + 4 +  

G|----------------|----------------|
D|----------------|----------------|
A|3h5---3h5-----3-|3-5-------------|
E|----------------|--------------2-|
  1 + 2 + 3 + 4 +  1 + 2 + 3 + 4 + 

[Chorus]
G|----------------|----------------|----------------|----------------|
D|----------------|----------------|----------------|--------------2h|
A|--------------5h|6---------------|------6h7-------|----------------|
E|3---------------|------2-3-------|--------------2-|3---------------|
  1 + 2 + 3 + 4 +  1 + 2 + 3 + 4 +  1 + 2 + 3 + 4 +  1 + 2 + 3 + 4 +  

G|----------------|----------------|
D|3---------------|------4h5-------|
A|----------------|----------------|
E|------2-3-------|----------------|
  1 + 2 + 3 + 4 +  1 + 2 + 3 + 4 +  

[Sax Solo]
  4/4
G|----------------|----------------|
D|----------------|----------------|
A|3h5---3h5-----3-|3-5-------------| x7
E|----------------|----------------|
  1 + 2 + 3 + 4 +  1 + 2 + 3 + 4 +  

G|----------------|----------------|
D|----------------|----------------|
A|3h5---3h5-----3-|3-5-------------|
E|----------------|--------------2-|
  1 + 2 + 3 + 4 +  1 + 2 + 3 + 4 + 

[Chorus]
G|----------------|----------------|----------------|----------------|
D|----------------|----------------|----------------|--------------2h|
A|--------------5h|6---------------|------6h7-------|----------------|
E|3---------------|------2-3-------|--------------2-|3---------------|
  1 + 2 + 3 + 4 +  1 + 2 + 3 + 4 +  1 + 2 + 3 + 4 +  1 + 2 + 3 + 4 +  

G|----------------|----------------|
D|3---------------|------4h5-------|
A|----------------|--------------x-|
E|------2-3-------|----------------|
  1 + 2 + 3 + 4 +  1 + 2 + 3 + 4 +  
 3/4
G|------------|------------|------------|------------|
D|------------|------------|------------|------------|
A|5-----------|3-----------|------------|3-----------| x2
E|------------|------------|6-----------|------------|
  1 + 2 + 3 +  1 + 2 + 3 +  1 + 2 + 3 +  1 + 2 + 3 + 
               4/4
G|------------|----------------|----------------|----------------|
D|------------|----------------|----------------|----------------|
A|3-----------|----------------|----------------|----------------|
E|------------|5---------------|----------------|----------------|
  1 + 2 + 3 +  1 + 2 + 3 + 4 +  1 + 2 + 3 + 4 +  1 + 2 + 3 + 4 +  

[Outro]
G|----------------|----------------|
D|------------2h3-|--0-------------|
A|3h5---3h5-------|----------------| x15
E|----------------|----0---1---3h5-|
  1 + 2 + 3 + 4 +  1 + 2 + 3 + 4 +  

G|----------------|----------------|----------------|----------------|----------------||
D|----------------|----------------|----------------|----------------|----------------||
A|----4---7-------|----------------|----------------|--------5-------|----------------||
E|6-----------5-3-|----------------|------------5-1-|--3-0-----------|----------------||
  1 + 2 + 3 + 4 +  1 + 2 + 3 + 4 +  1 + 2 + 3 + 4 +  1 + 2 + 3 + 4 +  1 + 2 + 3 + 4 + 


************************************

| x   Dead note
| h   Hammer-on

************************************
Добавлено: 21.01.2018
Другие материалы по этой песне:
  • Аккорды и текст

Страница создана 21.01.2018
http://primanota.ru/itoiz/larunbaten-azala-chords.htm
Привет, Гость.
Предлагаем пройти революционный курс по гитаре.
Подарок от PrimaNota.Ru, забирай!