PrimaNota.ru - самый крупный в мире бесплатный архив песенных текстов, аккордов, табулатур и нот


Itoiz - Hire Bideak - бас-таба, видео

Регистрация Запомнить меня
Войти через:  Facebook Google Twitter Vk Yandex Mail.ru

Itoiz - Hire Bideak - бас-таба, видео

Печатать
Просмотров: 28
Новый альбом группы 'Черный Кузнец' по культовому сериалу 'Сверхъестественное'!
Artist : Itoiz
Album : Alkolea
Song : Hire Bideak


[Instrumental] 1:07

G|----6-6-------------------------|----4-4-------------------------|
D|--------------------------------|--------------------------------|
A|4-------------------------------|2-------------------------------|-|
E|--------------------------------|--------------------------------| |
  1   +   2   +   3   +   4   +    1   +   2   +   3   +   4   +     |
                                                                     | x2
G|----3-3-------------------------|----2-2-------------------------| |
D|--------------------------------|--------------------------------|-|
A|1-------------------------------|0-------------------------------|
E|--------------------------------|--------------------------------|
  1   +   2   +   3   +   4   +    1   +   2   +   3   +   4   +  

G|--------------------------------|
D|--------2-----------------------|
A|4-------------4---2-------------| x4
E|--------------------------------|
  1   +   2   +   3   +   4   +    


[Verse]
 There are some minors variations
G|--------------------------------|
D|--------2-----------------------|
A|4---4---------4---2-------------| x8
E|--------------------------------|
  1   +   2   +   3   +   4   +   


[Chorus]
 2/4       4/4                                              
G|--------|----------------|----------------|----------------|
D|--------|----------------|----------------|----------------|
A|--------|7---------------|9---9-9-------x-|9-9-9-9---------|
E|4-------|--------7-------|----------------|----------------|
  1 + 2 +  1 + 2 + 3 + 4 +  1 + 2 + 3 + 4 +  1 + 2 + 3 + 4 +
 4/4
G|--------------------------------|--------------------------------|
D|------------------------------6-|--------------------------------|
A|----7-----7-----7-----7-6-7-9---|----7-----7-----7---------------| x2
E|9-----9-----9-----9-------------|9-----9-----9-----9---9-9-7-----|
  1   +   2   +   3   +   4   +    1   +   2   +   3   +   4   +  


[Verse]
 There are some minors variations
G|--------------------------------|
D|--------2-----------------------|
A|4---4---------4---2-------------| x8
E|--------------------------------|
  1   +   2   +   3   +   4   +   


[Chorus] 
 2/4       4/4                                              
G|--------|----------------|----------------|----------------|
D|--------|----------------|----------------|----------------|
A|--------|7---------------|9---9-9-------x-|9-9-9-9---------|
E|4-------|--------7-------|----------------|----------------|
  1 + 2 +  1 + 2 + 3 + 4 +  1 + 2 + 3 + 4 +  1 + 2 + 3 + 4 +
 4/4
G|--------------------------------|--------------------------------|
D|------------------------------6-|--------------------------------|
A|----7-----7-----7-----7-6-7-9---|----7-----7-----7---------------| x2
E|9-----9-----9-----9-------------|9-----9-----9-----9---9-9-7-----|
  1   +   2   +   3   +   4   +    1   +   2   +   3   +   4   +  
 2/4       4/4                                              
G|--------|----------------|----------------|----------------|
D|--------|----------------|----------------|----------------|
A|--------|7---------------|9---9-9---------|9~--------------|
E|4-------|--------7-------|----------------|----------------|
  1 + 2 +  1 + 2 + 3 + 4 +  1 + 2 + 3 + 4 +  1 + 2 + 3 + 4 +


[Interlude]

G|--------6-6---------------------|
D|----6---------------------------|
A|4-------------------------------| x36 (Yes, I counted right)
E|--------------------------------|
  1   +   2   +   3   +   4   +    


[Sax Solo] 4:14

G|--------|--------|--------|--------|--------|--------|
D|--------|--------|--------|--------|--------|--------|
A|4~------|-------/|6~------|-------/|9~------|--------|-|
E|--------|--------|--------|--------|--------|--------| |
  1 2 3 4  1 2 3 4  1 2 3 4  1 2 3 4  1 2 3 4  1 2 3 4   |
                                                         | x2
G|--------|--------|--------|--------|--------|--------| |
D|--------|--------|--------|--------|13~-----|--------|-|
A|7~------|-------/|11~-----|--------|--------|--------|
E|--------|--------|--------|--------|--------|--------|
  1 2 3 4  1 2 3 4  1 2 3 4  1 2 3 4  1 2 3 4  1 2 3 4  

G|----------------|----------------|----------------|----------------|
D|----------------|----------------|----------------|----------------|
A|4---------------|----------------|4-----6---------|----------------| x2
E|------4---------|2-----0---------|----------------|----------------|
  1 + 2 + 3 + 4 +  1 + 2 + 3 + 4 +  1 + 2 + 3 + 4 +  1 + 2 + 3 + 4 +  


[Guitar Solo]

G|----------------|----------------|----------------|----------------|
D|----------------|----------------|----------------|----------------|
A|4---------------|----------------|4-----6---------|----------------| x2
E|------4---------|2-----0---------|----------------|----------------|
  1 + 2 + 3 + 4 +  1 + 2 + 3 + 4 +  1 + 2 + 3 + 4 +  1 + 2 + 3 + 4 +  

G|------6-------------------------|------6-------------4-----------|
D|--------------------6-------6---|4-------6---2-------------------|
A|4-------4-----------------------|------------------------2---3---|-|
E|------------4-----------4-------|--------------------------------| |
  1   +   2   +   3   +   4   +    1   +   2   +   3   +   4   +     |
                                                                     | x2
G|------6-------------------------|--------------------------------| |
D|--------------------------------|--------------------------------|-|
A|4-------4---6-------------------|--------------------------------|
E|--------------------------------|--------------------------------|
  1   +   2   +   3   +   4   +    1   +   2   +   3   +   4   + 
  
G|------6-------------------------|------6-------------4-----------|
D|--------------------6-------6---|4-------6---2-------------------|
A|4-------4-----------------------|------------------------2---3---|
E|------------4-----------4-------|--------------------------------|
  1   +   2   +   3   +   4   +    1   +   2   +   3   +   4   +   

G|------6-------------------------|--------------------------------|
D|--------------------------------|--------------------------------|
A|4-------4---6-------------------|------------7-------------------|
E|--------------------------------|4-------7-----------------------|
  1   +   2   +   3   +   4   +    1   +   2   +   3   +   4   +     

G|--------------------------------|------------11~-----------------|
D|--------8---9-------------------|--------------------------------|
A|11------------------------------|--------11----------------------|
E|--------------------------------|9-------------------------------|
  1   +   2   +   3   +   4   +    1   +   2   +   3   +   4   +  

G|--------------------------------|--------------------------------|
D|--------------------------------|----------------------------2-1-|
A|9-------------------------------|--------------------------------|
E|--------------------------------|--------------------------------|
  1   +   2   +   3   +   4   +    1   +   2   +   3   +   4   +    


[Outro]
Minors variations here too but that's the main idea
G|--------------------------------|
D|--------------2---------2-1-----|
A|4---4---4-4-4-------4-------4-2-| repeat and fade out
E|--------------------------------|
  1   +   2   +   3   +   4   +    


************************************

| x   Dead note
| /   Slide up
| \   Slide down
| ~   Vibrato

************************************
Добавлено: 21.01.2018
Другие материалы по этой песне:
  • Аккорды и текст

Страница создана 21.01.2018
http://primanota.ru/itoiz/hire-bideak-chords.htm
Привет, Гость.
Предлагаем пройти революционный курс по гитаре.
Подарок от PrimaNota.Ru, забирай!