PrimaNota.ru - самый крупный в мире бесплатный архив песенных текстов, аккордов, табулатур и нот


Itoiz - Hilzori Ii - бас-таба, видео

Регистрация Запомнить меня
Войти через:  Facebook Google Twitter Vk Yandex Mail.ru

Itoiz - Hilzori Ii - бас-таба, видео

Печатать
Просмотров: 38
Новый альбом группы 'Черный Кузнец' по культовому сериалу 'Сверхъестественное'!
Artist : Itoiz
Album : Itoiz
Song : Hilzori II 



[Verse] 0:14
4/4
G|------------------------------------|----------------------------------------|
D|14-14--14--14--14-13-13--13--13--13-|12-12--12--12--12-/11---11----5-7-5-----|
A|------------------------------------|------------------------------------0-2-|-|
E|------------------------------------|----------------------------------------| |
                                                                                 | x6
G|------------------------------------|----------------------------------------| |
D|------------------------------------|----------------------------------------|-|
A|3----------------/7-----------------|3-----------------/14-------------------|
E|------------------------------------|----------------------------------------|


[Chorus]

G|------------------------------------|---------------------------------|
D|------------------------------------|---------------------------------|
A|------------------------------------|5---5---5-3----------------0---2-|-|
E|0-----------0-7-5-7---------------7-|--------------7-3----------------| |
                                                                          | x2
G|------------------------------------|---------------------------------| |
D|------------------------------------|---------------------------------|-|
A|3--------3-2---0------------------0-|7-----7----------7---------------|
E|-----------------3--------------3---|--------7------7-----------------|


[Verse]

G|------------------------------------|----------------------------------------|
D|14-14--14--14--14-13-13--13--13--13-|12-12--12--12--12-/11---11----5-7-5-----|
A|------------------------------------|------------------------------------0-2-|-|
E|------------------------------------|----------------------------------------| |
                                                                                 | x4
G|------------------------------------|----------------------------------------| |
D|------------------------------------|----------------------------------------|-|
A|3----------------/7-----------------|3-----------------/14-------------------|
E|------------------------------------|----------------------------------------|


[Chorus]

G|------------------------------------|---------------------------------|
D|------------------------------------|---------------------------------|
A|------------------------------------|5---5---5-3----------------0---2-|-|
E|0-----------0-7-5-7---------------7-|--------------7-3----------------| |
                                                                          | x2
G|------------------------------------|---------------------------------| |
D|------------------------------------|---------------------------------|-|
A|3--------3-2---0------------------0-|7-----7----------7---------------|
E|-----------------3--------------3---|--------7------7-----------------|


[Guitar Solo]

G|------------------------------------|---------------------------------|
D|------------------------------------|---------------------------------|
A|------------------------------------|5---5---5-3----------------0---2-|
E|0-----------0-7-5-7---------------7-|--------------7-3----------------|

G|------------------------------------|---------------------------------|
D|------------------------------------|---------------------------------|
A|3--------3-2---0------------------0-|7-----7----------7---------------|
E|-----------------3--------------3---|--------7-----7------------------|
 6/8
G|--------------|------------|----------------|----------------|--------------|
D|--------------|------------|----------------|------9-------9-|10-9-7-10-9-7-|
A|7-9-10-7-9-10-|6-7-9-6-7-9-|9-10-12-9-10-12-|10-12---10-12---|--------------| 
E|--------------|------------|----------------|----------------|--------------|

G|--------------|-------------|-------------|          
D|9-7----9-7----|-------------|-------------| 
A|----10-----10-|7-9-10-6-7-9-|7---5-7------|
E|--------------|-------------|--7----------|    

[Outro] (same pattern but faster)

G|--------------|------------|----------------|----------------|--------------|
D|--------------|------------|----------------|------9-------9-|10-9-7-10-9-7-|
A|7-9-10-7-9-10-|6-7-9-6-7-9-|9-10-12-9-10-12-|10-12---10-12---|--------------| 
E|--------------|------------|----------------|----------------|--------------|
                           1&2._____________
G|--------------|-------------|-------------|
D|9-7----9-7----|-------------|-------------|
A|----10-----10-|7-9-10-6-7-9-|7---5-7------| x3
E|--------------|-------------|--7----------|

 3.____________________
3/4                    4/4
G|---------------------|---------------------------------|---------------------------------|
D|---------------------|---------------------------------|---------------------------------|
A|7-------------5------|7-------------------------------/|15-15-15-15-15-15-15-15-15-15-14-|
E|-------7-------------|---------------------------------|---------------------------------|

G|---------------------------------|---------------------------------|-
D|---------------------------------|---------------------------------||
A|12-------------------------------|---------------------------------||
E|---------------------------------|12-------------------------------||

************************************

| x   Dead note
| g   Grace note
| (n) Ghost note
| h   Hammer-on
| p   Pull-off
| r   Release
| /   Slide up
| \   Slide down
| ~   Vibrato

************************************
Добавлено: 21.01.2018
Другие материалы по этой песне:
  • Аккорды и текст

Страница создана 21.01.2018
http://primanota.ru/itoiz/hilzori-ii-chords.htm
Привет, Гость.
Предлагаем пройти революционный курс по гитаре.
Подарок от PrimaNota.Ru, забирай!