PrimaNota.ru - самый крупный в мире бесплатный архив песенных текстов, аккордов, табулатур и нот


Itoiz - Happening Baserrian - бас-таба, видео

Регистрация Запомнить меня
Войти через:  Facebook Google Twitter Vk Yandex Mail.ru

Itoiz - Happening Baserrian - бас-таба, видео

Печатать
Просмотров: 16
Новый альбом группы 'Черный Кузнец' по культовому сериалу 'Сверхъестественное'!
Artist : Itoiz
Album : Musikaz Blai
Song : "Happening" Baserrian


[Intro]

G|------------5h7-|------------7p5-|-------------------|-------------------|
D|----------------|----------------|--------------5h7--|-------------------|
A|--3h4h5---------|--3h4h5---------|-------------------|-------------------|
E|----------------|----------------|--5-5-3-5----------|--5-5-3-5-----1h3--|
  1 + 2 + 3 + 4 +  1 + 2 + 3 + 4 +  1 +   2 + 3 + 4 +   1 +   2 + 3 + 4 +   
 
G|------------5h7-|------------7p5-|-------------------|----------5-5-------------|
D|----------------|----------------|--------------5h7--|----------------7-7---5\--|
A|--3h4h5---------|--3h4h5---------|-------------------|--------------------------|
E|----------------|----------------|--5-5-3-5----------|--5-5-3-5-----------------|
  1 + 2 + 3 + 4 +  1 + 2 + 3 + 4 +  1 +   2 + 3 + 4 +   1 +   2 + 3   +   4   +   


[Verse]

G|------------5h7-|------------7p5-|-------------------|-------------------|
D|----------------|----------------|--------------5h7--|-------------------|
A|--3h4h5---------|--3h4h5---------|-------------------|-------------------| x3
E|----------------|----------------|--5-5-3-5----------|--5-5-3-5-----1h3--|
  1 + 2 + 3 + 4 +  1 + 2 + 3 + 4 +  1 +   2 + 3 + 4 +   1 +   2 + 3 + 4 +   

G|------------5h7-|------------7p5-|-------------------|----------5-5-------------|
D|----------------|----------------|--------------5h7--|----------------7-7-------|
A|--3h4h5---------|--3h4h5---------|-------------------|----------------------0---|
E|----------------|----------------|--5-5-3-5----------|--5-5-3-5-----------------|
  1 + 2 + 3 + 4 +  1 + 2 + 3 + 4 +  1 +   2 + 3 + 4 +   1 +   2 + 3   +   4   +   


[Chorus]

G|--------------------------------|-------------------------------|
D|--------------------------------|-------------------------------|
A|2-----2-2-----2-2-----2-2-----2-|2-----2-2-----2-2-----2-2---0--|-|
E|--------------------------------|-------------------------------| |
  1   +   2   +   3   +   4   +    1   +   2   +   3   +   4   +    |
                                                                    | x2
G|--------------------------------|-------------------------------| |
D|--------------------------------|-------------------------------|-|
A|--------------------------------|----------------------------0--|
E|3-----3-3-----3-3-----3-3-----3-|3-----3-3-----3-3-----3-3------|
  1   +   2   +   3   +   4   +    1   +   2   +   3   +   4   +   


[Verse]

G|------------5h7-|------------7p5-|-------------------|-------------------|
D|----------------|----------------|--------------5h7--|-------------------|
A|--3h4h5---------|--3h4h5---------|-------------------|-------------------| x3
E|----------------|----------------|--5-5-3-5----------|--5-5-3-5-----1h3--|
  1 + 2 + 3 + 4 +  1 + 2 + 3 + 4 +  1 +   2 + 3 + 4 +   1 +   2 + 3 + 4 +   

G|------------5h7-|------------7p5-|-------------------|----------5-5-------------|
D|----------------|----------------|--------------5h7--|----------------7-7-------|
A|--3h4h5---------|--3h4h5---------|-------------------|----------------------0---|
E|----------------|----------------|--5-5-3-5----------|--5-5-3-5-----------------|
  1 + 2 + 3 + 4 +  1 + 2 + 3 + 4 +  1 +   2 + 3 + 4 +   1 +   2 + 3   +   4   +   


[Chorus]

G|--------------------------------|-------------------------------|
D|--------------------------------|-------------------------------|
A|2-----2-2-----2-2-----2-2-----2-|2-----2-2-----2-2-----2-2---0--|-|
E|--------------------------------|-------------------------------| |
  1   +   2   +   3   +   4   +    1   +   2   +   3   +   4   +    |
                                                                    | x4
G|--------------------------------|-------------------------------| |
D|--------------------------------|-------------------------------|-|
A|--------------------------------|----------------------------0--|
E|3-----3-3-----3-3-----3-3-----3-|3-----3-3-----3-3-----3-3------|
  1   +   2   +   3   +   4   +    1   +   2   +   3   +   4   +   


[Guitar Solo]

G|------------5h7-|------------7p5-|-------------------|-------------------|
D|----------------|----------------|--------------5h7--|-------------------|
A|--3h4h5---------|--3h4h5---------|-------------------|-------------------| x3
E|----------------|----------------|--5-5-3-5----------|--5-5-3-5-----1h3--|
  1 + 2 + 3 + 4 +  1 + 2 + 3 + 4 +  1 +   2 + 3 + 4 +   1 +   2 + 3 + 4 +   

G|------------5h7-|------------7p5-|-------------------|----------5-5-------------|
D|----------------|----------------|--------------5h7--|----------------7-7-------|
A|--3h4h5---------|--3h4h5---------|-------------------|----------------------0---|
E|----------------|----------------|--5-5-3-5----------|--5-5-3-5-----------------|
  1 + 2 + 3 + 4 +  1 + 2 + 3 + 4 +  1 +   2 + 3 + 4 +   1 +   2 + 3   +   4   +   


[Chorus]

G|--------------------------------|-------------------------------|
D|--------------------------------|-------------------------------|
A|2-----2-2-----2-2-----2-2-----2-|2-----2-2-----2-2-----2-2---0--|-|
E|--------------------------------|-------------------------------| |
  1   +   2   +   3   +   4   +    1   +   2   +   3   +   4   +    |
                                                                    | fade out
G|--------------------------------|-------------------------------| |
D|--------------------------------|-------------------------------|-|
A|--------------------------------|----------------------------0--|
E|3-----3-3-----3-3-----3-3-----3-|3-----3-3-----3-3-----3-3------|
  1   +   2   +   3   +   4   +    1   +   2   +   3   +   4   +   
 


************************************

| h   Hammer-on
| p   Pull-off
| r   Release
| /   Slide up
| \   Slide down

************************************
Добавлено: 21.01.2018
Другие материалы по этой песне:
  • Аккорды и текст

Страница создана 21.01.2018
http://primanota.ru/itoiz/happening-baserrian-chords.htm
Привет, Гость.
Предлагаем пройти революционный курс по гитаре.
Подарок от PrimaNota.Ru, забирай!