PrimaNota.ru - самый крупный в мире бесплатный архив песенных текстов, аккордов, табулатур и нот


Itchyworms - Suplado Ka Pala Sa Personal - аккорды и текст, таба, видео

Регистрация Запомнить меня
Войти через:  Facebook Google Twitter Vk Yandex Mail.ru

Itchyworms - Suplado Ka Pala Sa Personal - аккорды и текст, таба, видео

Печатать
Просмотров: 135
Suplado Ka Pala Sa Personal
Itchyworms
Title      :    Suplado Ka Pala Sa Personal
Artist     :    Itchyworms
Album      :    Self-Titled

For any Comments and Suggestions:

Text Me:     09082360710/09156169501
Email Me:    jhenson_21@rocketmail.com
Friendster:  boybassista@yahoo.com


Tuning: Standard


Chorus:

  Em                    C               
Di mo ko pinapansin, Di ka pa tumitingin
 
 G             Bm
Suplado ka sa personal

Intro:

  Em           A           Em           A
e-------------------------------------------------|
b-------------------------------------------------|
g-999---------------------999---------------------|
D-999---------777---------999---------777---------|
A-777--5-6-7--777---------777--5-6-7--777---------|
E-------------555--3-4-5--------------555--3-4-5--|

Verse 1:

   C                                     G
Sir ang lupet naman ng  ngipin  niyo noong April 7

    C                               G
Ako yun nakipag-apir sayo na nakalight orange

     C                                      Em
Ang galing-galing niyo sir wala kayong ibang katulad

Pre-choruis

  Am            Bm     C          Bm
Nang lumapit na sayo,bigla kang lumayo

  Am         Bm       C       D
Lumabas ang totoo, niloko mo ako

Repeat Chorus:

Bridge:

     C                D           C                      D
Hindi tulad ng nasa pulitika, Nakikitanim na malaman sa kapwa niya 

      -------------
Suplado ka pala sa personal...

Verse 2:

   C                                 G
Nang di ka pa sikat ay lagi na kitang kasama..

  C                        G
Ako yun kausap mo na nakalight orange

    C                                 Em
Ngayon big time ka na di na tayo nagkikita..


Refrain
 
   Am         Bm         C                Bm   
Naalala mo pa ba ako.. sige ano nga pangalan ko

 Am         Bm          C            D
Lumabas na ang totoo.. kinalimutan mo ako..

Repeat chorus:

Repeat Bridge:

Intro:

  Em           A            Em           A
e-------------------------------------------------|
b-------------------------------------------------|
g-999---------------------999---------------------|
D-999---------777---------999---------777---------|
A-777--5-6-7--777---------777--5-6-7--777---------|
E-------------555--3-4-5--------------555--3-4-5--|

  Em-Bm-C
Penge naman ng kahit na anong pagremembrance

  Em-Bm-C
Sige na naman im one of your biggest fans

   Em-Bm-C
Damot mo naman parang wala pinagsamahan


Adlib: Em-A

Repeat chorus:

Repeat Bridge:

Intro:

  Em           A            Em           A
e-------------------------------------------------|
b-------------------------------------------------|
g-999---------------------999---------------------|
D-999---------777---------999---------777---------|
A-777--5-6-7--777---------777--5-6-7--777---------|
E-------------555--3-4-5--------------555--3-4-5--|

*If you want to Learn How to Read Tabs Just Text me: 09082360710/09156169501
 
www.ultimate-guitar.com

'=================='
/   RoCk En RoLL   \
'------------------'







Добавлено: 26.07.2012
Другие материалы по этой песне:
  • Аккорды и текст

Страница создана 05.04.2012
http://primanota.ru/itchyworms/suplado-ka-pala-sa-personal-chords.htm
Привет, Гость.
Предлагаем пройти революционный курс по гитаре.
Подарок от PrimaNota.Ru, забирай!