PrimaNota.ru - самый крупный в мире бесплатный архив песенных текстов, аккордов, табулатур и нот


Itchyworms - Princesa - таба, видео

Регистрация Запомнить меня
Войти через:  Facebook Google Twitter Vk Yandex Mail.ru

Itchyworms - Princesa - таба, видео

Печатать
Просмотров: 110
Song:Princesa
Album:Kami nAPO Muna Ulit
Artist:Itchyworms
Date Tabbed:September,2007
Guitar Tabber:Ryan Manongdo/17/m/Montalban Rizal
              no_falter0x@yahoo.com(Friendster&YM)
              
For your questions or suggestions,just post in friendster comment,PM or mail me.

Gtr.Legends:
~ - let it ring
. - palm muting

Gtr.Tuning:Standard(Normal)

Intro:
e|-----------------------------------------------------|
B|-----------------------------------------------------|
G|----9------------9-------------9---------------------|
D|-9~-7--11-10--9~-7--11-18---9~-7--11-10-9-------7~---|
A|-7~-----9--8--7~-----9--8---7~-----9--8-7---7---5~---|
E|--------------------------------------------5--------|
      .            .             .        .   .   

Verse 1:Lalo ako'y mag-umpisang...
e|-22222222-0000000-22222---|
B|-33333333-0000000-33333---|
G|-22222222-0000000-22222---| 2x
D|-00000000-2222222-00000---|
A|----------2222222---------|
E|----------0000000---------|

Maraming kapareha...
e|-3-3-3-3--2-2-2-2--2-2-2-2---|
B|-3-3-3-3--3-3-3-3--3-3-3-3---|
G|-0-0-0-0--2-2-2-2--4-4-4-4---|
D|-0-0-0-0--0-0-0-0--4-4-4-4---|
A|-2-2-2-2-----------2-2-2-2---|
E|-3-3-3-3---------------------|
   . . . .  . . . .  . . . .

Pre-Chorus:Ngunit ng makita ka...
e|------------------------------------------------------------|
B|------------------------------------------------------------|
G|----9------------9-------------9----------------------------|
D|-9~-7--11-10--9~-7--11-18---9~-7--11-10-9-------7~--77777---|
A|-7~-----9--8--7~-----9--8---7~-----9--8-7---7---5~--55555---|
E|--------------------------------------------5---------------|
      .            .             .        .   .   

Chorus:Panaginip kita...
e|---------------------------------------------------------------------------------------|
B|---------------------------------------------------------------------------------------|
G|---------------------------------------------------------------------------------------|
D|-77777-555-------77777-5555--------12121212-101010------------1212121212-101010-9999---|
A|-55555-333-7777--55555-3333-7777---10101010--8-8-8-12121212---1010101010--8-8-8-7777---|
E|-----------5555-------------5555-------------------10101010----------------------------|
   ..... ... ....  ..... .... ....   ........  . . . ........   ..........  . . . ....

Ibibigay ko...
e|-------------------------------------------------------------|
B|-------------------------------------------------------------|
G|-------------------------------------------------------------|
D|-9999999------------------------------Drum-------------------|
A|-7777777-99999--7--xxxxxxx--999999--7-Roll--7-9999-11-9-7~---|
E|---------77777--5--xxxxxxx--777777--5-------5-7777--9-7-5~---|
 
Repeat Verse:

Repeat Pre-Chorus:

Repeat Chorus:

Verse 3:Lalong kami sa simbahan..
e|--------------------------|
B|-66666--9-9-9-9-9-66666---|
G|-88888-1010101010-88888---| 2x
D|-88888-1010101010-88888---|
A|-66666--8-8-8-8-8-66666---|
E|--------------------------|

Gtr.2
e|------------------------------------------6b----------------------------------6b-----------6b---|
B|------------------------------------------------------------------------------------------------|
G|-3-3-3-3-5---55-77-55---3-3-3-3-5--55--1-------3-3-3-3-5--55-77-55---3-3-3-3------3-3-3-3-------|
D|------------------------------------------------------------------------------------------------|
A|------------------------------------------------------------------------------------------------|
E|------------------------------------------------------------------------------------------------|

Outro:
e|----------------------------------------------------------|
B|----------------------------------------------------------|
G|-----10-------------10--------------10--------------------|
D|-10~--8--12-11--10~--8---12-11--10~--8--12-11-10-----8~---|
A|--8~-----10--9---8~------10--9---8~-----10--9--8--8--6~---|
E|--------------------------------------------------6-------|
        .              .               .         .  .

End...


Добавлено: 21.03.2012
Другие материалы по этой песне:
  • Аккорды и текст

Страница создана 21.03.2012
http://primanota.ru/itchyworms/princesa-chords.htm
Привет, Гость.
Предлагаем пройти революционный курс по гитаре.
Подарок от PrimaNota.Ru, забирай!