PrimaNota.ru - самый крупный в мире бесплатный архив песенных текстов, аккордов, табулатур и нот


Itchyworms - Noon Time Show - аккорды и текст, видео

Регистрация Запомнить меня
Войти через:  Facebook Google Twitter Vk Yandex Mail.ru

Itchyworms - Noon Time Show - аккорды и текст, видео

Печатать
Просмотров: 107
Noon Time Show
Itchyworms
Helloo! Noon Time show by the Itchyworms toh.. maganda toh... mga 90-95% sure ako dito..
Makakatulong kung papakinggan nio ung kanta for timing and strumming lalo na sa verse 
un lng.. salamat

Itchyworms - Theme From Noon Time Show


Intro:
e|0-------------------|0-------------------|
B|--4-2-2---3-2-0-0---|--4-2-2---3-2-0-0---|
G|--------------------|--------------------|
D|--------------------|--------------------|
A|--------------------|--------------------|
E|--------------------|--------------------|

e|--0-----------------|
B|0---4-2-0-0--3-2-0--|
G|--------------------| 4x
D|--------------------|
A|--------------------|
E|--------------------|

Verse:
E-A       E-A
Halina at sumama
   E-A      B       C-B
sa programa na pang masa
E-A              E-A
Hindi kailangang magaling ka
E-A     B       C      B
basta't bibbo't bongga ka

Pre-Chorus
F#m                Fm
Wala naman kayong alam
(ginagawa kayong tanga)
F#m                Bm
laging sinusubaybayan


(same chords lang lahat nung verse at pre chorus)

Verse 2
Pumila nang maaga
Para makuhanan ng camera
Pumorma nang magara-ha
Malay mo ma-discover ka!

Pre-Chorus2:
Hinihintay nila kayo
(Ang dami niyong uto-uto)
Itapon na ang utak niyo

Chorus:
G     D  Am7        F
Sali na, dalhin ang barkada
G     D   Am7     F
Umuulan dito ng pera
G    D    Am7       F    pause
Sali na, pati ang pamilya
   G      D    Am7   F
Sa happy-sappy magic-plastic
G    D    Am7
Ihaw-ihaw all-time
D
Noon-time show

e|--0-----------------|
B|0---4-2-0-0--3-2-0--|
G|--------------------|
D|--------------------|
A|--------------------|
E|--------------------|

Verse3:
Sumasayaw, umaawit
Sila kahit na pangit
Walang duda benta sila
Dahil guwapo at maganda

PreChorus3:
Hindi naman kayo tanga
(Ang dami pa namang iba)
Gustong-gusto n'yo pa sila

Chorus:
Sali na, dalhin ang barkada
Umuulan dito ng pera
Sali na, pati ang pamilya
Sa happy-sappy magic-plastic
Ihaw-ihaw all-time
Noon-time show

Bridge:
F#m            Gm
Sa libu-libong nakatunganga
F#m           Fm
Kami lang ang inyong pag-asa
F#m            Gm
Tumutok na bawat tanghali
F#m             Fm
Wag na wag na kayong babawi

(Continue chords: F#m-Gm-F#m-Fm for the rest of the bridge part)

Sumunod ka na lang sa uso
E ano kung hindi bagay sayo
Sambahin ang mga artista
Sundan ang bawat kilos nila

Gasgasin mga lumang plaka
Hanggang dito na lang ang masa
Ganito dapat pumorma
Para magmukhang artista

Ganito dapat ang kulay
Para umunlad ang buhay
Ganito dapat pag banda
Pagkanta may epal na artista

Hanggang dito na lang ba ang masa?
(Hanggang dito na lang ang masa)


lead part after bridge:
e|--0-----------------|
B|0---4-2---0--3-2-0--|
G|--------------------| 2x
D|--------------------|
A|--------------------|
E|--------------------|

Chorus:

Sali na, dalhin ang barkada
Uulan dito ng pera
Sali na, pati ang pamilya
Sa happy-sappy magic-plastic
Super Dooper Bongang bongang
Ihaw-ihaw all-time
Noon-time show

Outro:
e|--0-----------------|
B|0---4-2-0-0--3-2-0--|
G|--------------------|
D|--------------------|
A|--------------------|
E|--------------------|

Note: -Iyong sa intro d ko po sure ung 3 chord na gagamitin e.. sorry..
      -Paki gamit na lang ng bar na C para mas madali at maganda..

Salamat! yipee!!
Paki rate na lang ha.. or pwede rin email.. brax4life2003@yahoo.com
Добавлено: 26.03.2012
Другие материалы по этой песне:
  • Аккорды и текст

Страница создана 26.03.2012
http://primanota.ru/itchyworms/noon-time-show-chords.htm
Привет, Гость.
Предлагаем пройти революционный курс по гитаре.
Подарок от PrimaNota.Ru, забирай!