PrimaNota.ru - самый крупный в мире бесплатный архив песенных текстов, аккордов, табулатур и нот


Itchyworms - Beer - аккорды и текст, таба, бас-таба, видео

Регистрация Запомнить меня
Войти через:  Facebook Google Twitter Vk Yandex Mail.ru

Itchyworms - Beer - аккорды и текст, таба, бас-таба, видео

Печатать
Просмотров: 353
Beer
Itchyworms
Beer
Itchyworms

E|-------2--------7--------2---7-7--3-3--------3-5--7--3--5--7----5--4----|
B|-0-0-3---1-0--5---1-0--3---------------5-3------------------------------|
G|------------------------------------------------------------------------|
D|------------------------------------------------------------------------|
A|------------------------------------------------------------------------|
E|------------------------------------------------------------------------|

mer ule gmawa nto…
elo s mga kklase q s st. Claire.. :) dati..:(



E7	  Am7	        D7
Nais kong magpakalasing
	 G		E7
Dahil wala ka na
      Am7		D7 
Nakatingin sa salamin
	  G-E7
At nag-iisa
       C
Nakatanim pa rin 

Ang gumamelang
Cm			  G	     E7
Binalik mo sa'kin nang tayo'y maghiwalay
Am7
Ito'y katulad
	    C
Ng damdamin ko
	            Am7		       D7
Kahit buhusan mo ng beer ayaw pang mamatay


Pre-chrous *

G		      C	     Am
Giliw, wag mo sanang limutin
	 Bm			Em
Ang mga araw na hindi sana maglaho
     Bm			     Em
Mga anak at bahay nating pinaplano
  Bm		  Cm7
Lahat ng ito'y nawala
            Am7	     D7
Nung iniwan mo ako kaya ngayon


Chorus **

C	       Bm
Ibuhos na ang beer
	 Em	  Bm
Sa aking lalamunan
C	      Bm
Upang malunod na ang
      Em        Bm
Puso kong nahihirapan
  Cm7	      B7
Bawat patak anong sarap
    Em	    Em7		  Cm7
Ano ba talagang mas gusto ko
     Am7
Ang beer na ito 
   D7		G
O ang pag-ibig mo

(intro)
(repeat 1st verse chords)

Nais kong magpakasabog
Dahil olats ako
Kahit ano hihithitin
Kahit tambutso
Kukuha ako ng 
Beer at ipapakulo
Sa kaldero't lalanghapin
Ang usok nito
lahat ay aking gagawin
Upang hindi ko na isiping
Nag-iisa na ako

Repeat **
Instrumental...C-Cm-G-E7-Am7-C-Am7-D7
Repeat *
Repeat ** except last line

    Am7
Ang beer na ito 
    Bm
Ang beer na ito
    C              D
Ang beer na ito o ang
           G
pag-ibig mo..


outro
E|-------2--------7--------2---7-7--3-3--------3-5--7--3------------------|
B|-0-0-3---1-0--5---1-0--3---------------5-3------------------------------|
G|------------------------------------------------------------------------|
D|------------------------------------------------------------------------|
A|------------------------------------------------------------------------|
E|------------------------------------------------------------------------|
Добавлено: 28.07.2012
Другие материалы по этой песне:

Страница создана 06.03.2012
http://primanota.ru/itchyworms/beer-chords.htm
Привет, Гость.
Предлагаем пройти революционный курс по гитаре.
Подарок от PrimaNota.Ru, забирай!