PrimaNota.ru - самый крупный в мире бесплатный архив песенных текстов, аккордов, табулатур и нот


Itchy Poopzkid - With Heads Held High - таба, видео

Регистрация Запомнить меня
Войти через:  Facebook Google Twitter Vk Yandex Mail.ru

Itchy Poopzkid - With Heads Held High - таба, видео

Печатать
Просмотров: 77
Уроки эстрадного вокала в Санкт-Петербурге
Itchy Poopzkid - With Heads Held High

Tuning: Half Step Down (Eb Ab Db Gb Bb Eb)

Intro
eb|---------------------------------------------------------------------------|
Bb|---------------------------------------------------------------------------|
Gb|----7-5----7-5-3-----5-5-5-5-5-5-5-----------------------------------------|
Db|-3--7-3-3--7-3-3--3--5-5-5-5-5-5-5-----------------------------------------|
Ab|-3--5-3-3--5-3-1--3--3-3-3-3-3-3-3-----------------------------------------|
Eb|-1------1---------1--------------------------------------------------------|

Verse 
eb|---------------------------------------------------------------------------|
Bb|---------------------------------------------------------------------------|
Gb|---------7-7-5-5---------7-7-5-5-3-3-3-3---------5-5-5-5-5-5-5-5-----------|
Db|-3-3-3-3-7-7-5-5-3-3-3-3-7-7-5-5-3-3-3-3-3-3-3-3-5-5-5-5-5-5-5-5------(x2)-| 
Ab|-3-3-3-3-5-5-3-3-3-3-3-3-5-5-3-3-1-1-1-1-3-3-3-3-3-3-3-3-3-3-3-3-----------|
Eb|-1-1-1-1---------1-1-1-1-----------------1-1-1-1---------------------------|

Bridge
eb|---------------------------------------------------------------------------|
Bb|---------------------------------------------------------------------------|
Gb|-7--5-5--3------3-----5-5-5-5----------------------------------------------|
Db|-7--5-5--3--3-3-3--3--5-5-5-5----------------------------------------------|
Ab|-5--3-3--1--3-3-1--3--3-3-3-3----------------------------------------------|
Eb|------------1-1----1-------------------------------------------------------|

Chorus
eb|---------------------------------------------------------------------------|
Bb|---------------------------------------------------------------------------|
Gb|-7-7-7-7-5-5-5-5-3-3-3-3---------3-3-3-3---------5-5-5-5-------------------|
Db|-7-7-7-7-5-5-5-5-3-3-3-3-3-3-3-3-3-3-3-3-3-3-3-3-5-5-5-5-------------------|
Ab|-5-5-5-5-3-3-3-3-1-1-1-1-3-3-3-3-1-1-1-1-3-3-3-3-3-3-3-3-------------------|
Eb|-------------------------1-1-1-1---------1-1-1-1---------------------------|

Verse (first time without guitar)
Bridge
Chorus

Solo 
eb|-13p12p10-13p12p10-13p12p10-13p12p10-15p13p12-15p13p12-15p13p12-15p13p12---|
Bb|---------------------------------------------------------------------------|
Gb|---------------------------------------------------------------------------|
Db|---------------------------------------------------------------------------|
Ab|---------------------------------------------------------------------------|
Eb|---------------------------------------------------------------------------|


eb|-17p15p13-17p15p13-17p15p13-17p15p13--20/----------------------------------|
Bb|---------------------------------------------------------------------------|
Gb|------------------------------------------15-15-14-12-10-------10----------|
Db|---------------------------------------------------------10-12-------------|
Ab|---------------------------------------------------------------------------|
Eb|---------------------------------------------------------------------------|

eb|-------12-13-15-20-22~-----------------------------------------------------|
Bb|-13-15---------------------------------------------------------------------|
Gb|---------------------------------------------------------------------------|
Db|---------------------------------------------------------------------------|
Ab|---------------------------------------------------------------------------|
Eb|---------------------------------------------------------------------------|

Bridge (x2)
Chorus (end on an E5)

have fun ;)
Добавлено: 18.07.2013
Другие материалы по этой песне:
  • Аккорды и текст

Страница создана 18.07.2013
http://primanota.ru/itchy-poopzkid/with-heads-held-high-chords.htm
Привет, Гость.
Предлагаем пройти революционный курс по гитаре.
Подарок от PrimaNota.Ru, забирай!