PrimaNota.ru - самый крупный в мире бесплатный архив песенных текстов, аккордов, табулатур и нот


Itchy Poopzkid - We Say So - таба, бас-таба, видео

Регистрация Запомнить меня
Войти через:  Facebook Google Twitter Vk Yandex Mail.ru

Itchy Poopzkid - We Say So - таба, бас-таба, видео

Печатать
Просмотров: 137
ITCHY POOPZKID - WE SAY SO (2012, Ports & Chords)

Tuning: Standard (E,A,D,G,H,e)


Intro / Chorus (Bass and Guitar)

       g#m              c#m            E                  H       Bb
e|----|---------------|---------------|------------------|---------------|
H|----|---------------|---------------|------------------|---------------|
G|----|---------------|---------------|------------------|---------------|
A|----|---------------|---------------|------------------|---------------|
D|----|---------------|-44-7-44-7-4-7-|-77-10-77-10-7-10-|---------------|
E|----|-44-7-44-7-4-7-|---------------|------------------|-7(x4)--6(x4)--|


Verse (calm)
       g#m              F#             c#m                H       
e|----|---------------|---------------|------------------|---------------|
H|----|---------------|---------------|------------------|---------------|
G|----|---------------|---------------|------------------|---------------|
A|----|---------------|---------------|------------------|---------------|
D|----|---------------|---------------|-44-7-44-7-4-7----|-22-5-22-5-2-5-|
E|----|-44-7-44-7-4-7-|-22-5-22-5-2-5-|------------------|---------------|

after 3 times play the Chords (g#m F# c#m H) in rhythm.


Chorus (like above)


Verse (like above) - Second Guitar plays Chords as quarter note.


Bridge (played as Verse Chords) - play 2 times, ending at E at the second time.


Chorus (like above)




-------------------------------------------------------------------------
Tabbed by Jonny
Questions and Comments to Jonnix@gmx.de.

Добавлено: 08.09.2013
Другие материалы по этой песне:
  • Аккорды и текст

Страница создана 08.09.2013
http://primanota.ru/itchy-poopzkid/we-say-so-chords.htm
Привет, Гость.
Предлагаем пройти революционный курс по гитаре.
Подарок от PrimaNota.Ru, забирай!