PrimaNota.ru - самый крупный в мире бесплатный архив песенных текстов, аккордов, табулатур и нот


Itchy Poopzkid - Tt Hurricane - таба, видео

Регистрация Запомнить меня
Войти через:  Facebook Google Twitter Vk Yandex Mail.ru

Itchy Poopzkid - Tt Hurricane - таба, видео

Печатать
Просмотров: 139
Intchy Poopzkid- T.T Hurricane

h=hammer on
s=slide
p=palm muted





Intro


e---------------------------------|
b---------------------------------|
g---------------------------------|    8x
d---------------------------------|
a----222--------555---------------|
E---------22222------55555--------|

e---------------------------------|
b---------------------------------|
g---------------------------------|
d---44444444-5--------------------|
a---44444444-5--------------------|
E---22222222-3--------------------|


Bridge

e---------------------------------|
b---------------------------------|
g---4---------7-7-----------------|
d---4--4------7-7--7--------------|
a---2--4------5-5--7--------------|
E------2-----------5--------------|


Strophe 1:


e---------------------------------|
b---------------------------------|
g---------------------------------|     5x
d---------------------------------|
a----222--------555---------------|
E---------22222------55555--------|

e----------------------------------|
b----------------------------------|
g----------------------------------|
d----------------------------------|
a----222--44444-555--77777---------|
E----------------------------------|


e-----------------------------------|
b-----------------------------------|
g-----------------------------------|
d---5555555555555555----------------|
a---5555555555555555----------------|
E---3333333333333333----------------|


Chorus:

e-------------------------------------------------|
b-------------------------------------------------|
g---4444444444444444---77--7--7--77--7--7----7777-|
d---4444444444444444---77--7--7--77--7--7----7777-|
a---2222222222222222---55--5--5--55--5--5----5555-|
E-------------------------------------------------|
                       pp        pp

e--------------------------------------------------|
b--------------------------------------------------|
g--------------------------------------------------|
d---44--4--4--44--4--4----4444----5555555555555555-|
a---44--4--4--44--4--4----4444----5555555555555555-|
E---22--2--2--22--2--2----2222----3333333333333333-|
    pp        pp

e--------------------------------------------------|
b--------------------------------------------------|
g---44--4--4--44--4--4----4444----7777777777777777-|
d---44--4--4--44--4--4----4444----7777777777777777-|
a---22--2--2--22--2--2----2222----5555555555555555-|
E--------------------------------------------------|
    pp        pp

e--------------------------------------------------|
b--------------------------------------------------|
g--------------------------------------------------|
d---44444444--5555-7777----------------------------|
a---44444444--5555-7777----------------------------|
E---22222222--3333-5555----------------------------|

Bridge 2x

Strophe 2:

e--------------------------------------------------|
b--------------------------------------------------|
g--------------------------------------------------|
d--------------------------------------------------|   2x
a--22-2--------55-5--------22-2--44-4--55-5--77-7--|
E--------22-2--------55-5--------------------------|
   pp    pp    pp    pp    pp    pp    pp    pp

e---------------------------------------------------|
b---------------------------------------------------|
g---------------------------------------------------|
d---------------------------------------------------|
a---2--2--------5555--------2222--4444--5555-7777---|
E---------2222--------5555--------------------------|


e----------------------------|
b----------------------------|
g----------------------------|
d----5555555555555555--------|
a----5555555555555555--------|
E----3333333333333333--------|


Chorus

Interlude 1

e------------------------------------------------------------------------------|
b------------------------------------------------------------------------------|
g-----------------------7----9---7-----7----9---7-----7----7---7----7----7---7-|
d--2--------5-----------7----9---7-----7----9---7-----7----7---7----7----7---7-|
a--2--------5--------00---00---0----00---00---00---00---00---0---00---00---0---|
E--0--------3------------------------------------------------------------------|
                     pp   pp   p    pp   pp   pp   pp   pp   p   pp   pp   p


e-----------------------------------------|
b-----------------------------------------|
g--------------------4--------2-----------|
d--2--------5--------4--------2-----------|
a--2--------5--------2--------0-----------|
E--0--------3-----------------------------|

Interlude 2 :

e-------------------------------------------|
b-------------------------------------------|
g-------------------------------------------|   4x
d-------------------------------------------|
a--2---245---5-5s11-9---7h9-7-4--4-55-44----|
E-------------------------------------------|


e-----------------------------------|
b-----------------------------------|
g-----------------------------------|
d---5555555555555555----------------|
a---5555555555555555----------------|
E---3333333333333333----------------|

Chorus

Bridge

End on
e------------------------------------|
b------------------------------------|
g---4--------------------------------|
d---4--------------------------------|
a---2--------------------------------|
E------------------------------------|
Добавлено: 20.07.2012
Другие материалы по этой песне:
  • Аккорды и текст

Страница создана 20.07.2012
http://primanota.ru/itchy-poopzkid/tt-hurricane-chords.htm
Привет, Гость.
Предлагаем пройти революционный курс по гитаре.
Подарок от PrimaNota.Ru, забирай!