PrimaNota.ru - самый крупный в мире бесплатный архив песенных текстов, аккордов, табулатур и нот


Itchy Poopzkid - Try Try Try - таба, бас-таба, видео

Регистрация Запомнить меня
Войти через:  Facebook Google Twitter Vk Yandex Mail.ru

Itchy Poopzkid - Try Try Try - таба, бас-таба, видео

Печатать
Просмотров: 126
-------------------------------------------------------------------------------
                             Try Try Try - Itchy Poopzkid
-------------------------------------------------------------------------------
Tabbed by: SPARTAN15129
E-mail:

Tuning: Standard 
Live: Half Step Down

Guitar Intro: (Is only Live played by guitar)

e|---------------------------------------------------------------------------|
B|---------------------------------------------------------------------------|
G|---------------------------------------------------------------------------|
D|-------7--7\5-3-0h2-3-3\5-2------------------------------------------------|
A|---------------------------------------------------------------------------|
E|---------------------------------------------------------------------------|

Main riff:
                                                                  (x4)
e|---------------------------------------------------------------|
B|--------x-6--x-6--x-6--x-6-------------------------------------|
G|--------x-7--x-7--x-7--x-7---x-7--x-7--x-6--x-6----------------|
D|--------x-7--x-7--x-7--x-7---x-8--x-8--x-7--x-7----------------|
A|--------x-5--x-5--x-5--x-5---x-8--x-8--x-7--x-7----------------|
E|-----------------------------x-6--x-6--x-5--x-5----------------|

Pre Chorus:

e|-----------------------------------|
B|-----3--5--7-5-7----3-5------------|
D|-----3--5--7-5-7----3-5---7--------|
A|-----1--3--5-3-5----1-3---7--------|
E|--------------------------5-(×14)--|

Chorus:
                                                           (×2)
e|--------------------------------------------------------| 
B|--------------------------------------------------------|
G|--7-----------7------------3-----------3-----5----------|
D|--7-----7-----7-----7------3-----3-----3-----5----------|
A|--5(×5)-7-----5(×5)-7------1(×5)-3-----1(×5)-3(×5)------|
E|--------5(×5)-------5(×5)--------1(×5)------------------|

Solo:

e|---------1-0h1p0-3--1-----------------------------------|
B|-------------------1-1----------------------------------|
G|----3------------------3-3-3/2--------------------------|
D|----3------------------3-3-3/2--------------------------|
A|----1------------------1-1-1/0--------------------------|
E|--------------------------------------------------------|

Main riff:
                                                                  (x4)
e|---------------------------------------------------------------|
B|--------x-6--x-6--x-6--x-6-------------------------------------|
G|--------x-7--x-7--x-7--x-7---x-7--x-7--x-6--x-6----------------|
D|--------x-7--x-7--x-7--x-7---x-8--x-8--x-7--x-7----------------|
A|--------x-5--x-5--x-5--x-5---x-8--x-8--x-7--x-7----------------|
E|-----------------------------x-6--x-6--x-5--x-5----------------|

Pre Chorus:

e|-----------------------------------|
B|-----3--5--7-5-7----3-5------------|
D|-----3--5--7-5-7----3-5---7--------|
A|-----1--3--5-3-5----1-3---7--------|
E|--------------------------5-(×14)--|

Chorus:
                                                         (×2)
e|--------------------------------------------------------|----|
B|--------------------------------------------------------|----|
G|--7-----------7------------3-----------3------5---------|--7-|
D|--7-----7-----7-----7------3-----3-----3------5---------|--7-|
A|--5(×5)-7-----5(×5)-7------1(×5)-3-----1(×14)-3(×14)----|--5-| let ring 
E|--------5(×5)-------5(×5)--------1(×5)------------------|----|

Bridge:

  Let ring
e|-------------------------------------------------------------|
B|--8-------8-------6-------5--------------------------------------|
G|--7-------7-------5-------4--------------------------------------|
D|--7-------5-------3-------2--------------------------------------|
A|--5-----------------------------------------------------------|
E|-------------------------------------------------------------|

    PM      PM      PM      PM                                 (x3)
e|-------------------------------------------------------------|
B|--8-------8-------6-------5----------------------------------|
G|--7-------7-------5-------4----------------------------------|
D|--7-------5(x16)--3(x16)--2(x16)-----------------------------|
A|--5(x16)-----------------------------------------------------|
E|-------------------------------------------------------------|

Chorus:
                                                           (×2)
e|--------------------------------------------------------| 
B|--------------------------------------------------------|
G|--7-----------7------------3-----------3-----5----------|
D|--7-----7-----7-----7------3-----3-----3-----5----------|
A|--5(×5)-7-----5(×5)-7------1(×5)-3-----1(×5)-3(×5)------|
E|--------5(×5)-------5(×5)--------1(×5)------------------|

Outro:

e|-----------------------|
B|-----------------------|
G|------7----------------|
D|------7----------------|
A|------5(x10)-----------|
E|-----------------------|


************************************

| /   slide up
| \   slide down
| h   hammer-on
| p   pull-off
| ~   vibrato
| +   harmonic
| x   Mute note
| b   Bend
| pb  Pre-bend
| br  Bend release
| pbr Pre-bend release
| brb Bend release bend

************************************
Добавлено: 04.10.2014
Другие материалы по этой песне:
  • Аккорды и текст

Страница создана 29.03.2012
http://primanota.ru/itchy-poopzkid/try-try-try-chords.htm
Привет, Гость.
Предлагаем пройти революционный курс по гитаре.
Подарок от PrimaNota.Ru, забирай!