PrimaNota.ru - самый крупный в мире бесплатный архив песенных текстов, аккордов, табулатур и нот


Itchy Poopzkid - The Future - таба, видео

Регистрация Запомнить меня
Войти через:  Facebook Google Twitter Vk Yandex Mail.ru

Itchy Poopzkid - The Future - таба, видео

Печатать
Просмотров: 88
Itchy Poopzkid - The Future
Tuning: Half-Step-Down

Every part has a headline, if the headline appears, you have to play this part ;)
The Intro is tabbed how Sibbi is playing it, i saw it on the concert in Bremen :>

Intro x6
eb|--5-5-5--4-4-4--5-5-5--4-4-4--7-7-7--4-4-4--5-5-5--4-4-4-4-----------------|
Bb|--7-7-7--7-7-7--7-7-7--7-7-7--7-7-7--7-7-7--7-7-7--7-7-7-7-----------------|
Gb|--6-6-6--6-6-6--6-6-6--6-6-6--6-6-6--6-6-6--6-6-6--6-6-6-6-----------------|
Db|--4-4-4--4-4-4--4-4-4--4-4-4--4-4-4--4-4-4--4-4-4--4-4-4-4-----------------| 
Ab|---------------------------------------------------------------------------|
Eb|---------------------------------------------------------------------------|

Verse (+Intro)
eb|---------------------------------------------------------------------------|
Bb|---------------------------------------------------------------------------|
Gb|---------------------------------------------------------------------------|
Db|---------------------------------------------------------------------------|
Ab|---------------------------------------------------4-4-4-4-5-5-5--5-5-5----|
Eb|--2-2-2--2-2-2--2-2-2--2-2-2--2-2-2--2-2-2--2-2-2--------------------------|

eb|---------------------------------------------------------------------------|
Bb|---------------------------------------------------------------------------|
Gb|---------------------------------------------------------------------------|
Db|---------------------------------------------------------------------------|
Ab|--5-5-5--5-5-5--5-5-5--5-5-5--5-5-5--5-5-5-5-2-2-2--2-2-2--2-2-2--2-2-2----|
Eb|---------------------------------------------------------------------------|

eb|---------------------------------------------------------------------------|
Bb|---------------------------------------------------------------------------|
Gb|---------------------------------------------------------------------------|
Db|---------------------------------------------------------------------------|
Ab|--4-4-4--4-4-4--4-4-4--4-2-------------------------------------------------|
Eb|---------------------------5-4-2-2-2--2-2-2--2-2-2--2-2-2--2-2-2--2-2-2----|

eb|---------------------------------------------------------------------------|
Bb|---------------------------------------------------------------------------|
Gb|---------------------------------------------------------------------------|
Db|---------------------------------------------------------------------------|
Ab|-----------------2-2-2--2-2-2--2-2-2--2-2-2--4-4-4--4-4-4--4-4-4--4-4-4-4--|
Eb|--2-2-2--2-2-2-2-----------------------------------------------------------|

eb|---------------------------------------------------------------------------|
Bb|---------------------------------------------------------------------------|
Gb|---------------------------------------------------------------------------|
Db|---------------------------------------------------------------------------|
Ab|---------------------------------------------------------------------------|
Eb|--2-2-2--2-2-2--2-2-2--2-2-2--2-2-2--2-2-2--2-2-2-2-2----------------------|


Chorus
eb|---------------------------------------------------------------------------|
Bb|---------------------------------------------------------------------------|
Gb|--7-7-7-7-7-7-7-7--\9-9-9-9-9-9-9-9-------------------------------------6--|
Db|--7-7-7-7-7-7-7-7--\9-9-9-9-9-9-9-9--4-4-4-4-4-4-4-2~--4-4-4-4-4-4-4-4--6--|
Ab|--5-5-5-5-5-5-5-5--\7-7-7-7-7-7-7-7--4-4-4-4-4-4-4-2~--4-4-4-4-4-4-4-4--4--|
Eb|-------------------------------------2-2-2-2-2-2-2-0~--2-2-2-2-2-2-2-2-----|

eb|---------------------------------------------------------------------------|
Bb|---------------------------------------------------------------------------|
Gb|--7-7-7-7-7-7-7-7--\9-9-9-9-9-9-9-9----------------------------------------|
Db|-.7-7-7-7-7-7-7-7--\9-9-9-9-9-9-9-9--4-4-4--4-4-4--4-4-4--4-4-4--4-4-4-----|
Ab|--5-5-5-5-5-5-5-5--\7-7-7-7-7-7-7-7--4-4-4--4-4-4--4-4-4--4-4-4--4-4-4-----|
Eb|-------------------------------------2-2-2--2-2-2--2-2-2--2-2-2--2-2-2-----|

eb|---------------------------------------------------------------------------|
Bb|---------------------------------------------------------------------------|
Gb|-----------------------7-7-7--7-7-7--7-7-7--7-7-7---6-6-6--6-6-6--6-6-6----|
Db|--4-4-4--4-4-4--4-4-4--7-7-7--7-7-7--7-7-7--7-7-7---6-6-6--6-6-6--6-6-6----|
Ab|--4-4-4--4-4-4--4-4-4--5-5-5--5-5-5--5-5-5--5-5-5~--4-4-4--4-4-4--4-4-4----|
Eb|--2-2-2--2-2-2--2-2-2------------------------------------------------------|

eb|---------------------------------------------------------------------------|
Bb|---------------------------------------------------------------------------|
Gb|---------------------------------------------------------------------------|
Db|----------4-4-4--4-4-4--4-4-4--4-4-4--4-4-4--4-4-4--4-4-4--4-4-4-----------|
Ab|--4-2-----4-4-4--4-4-4--4-4-4--4-4-4--4-4-4--4-4-4--4-4-4--4-4-4-----------|
Eb|------0-4-2-2-2--2-2-2--2-2-2--2-2-2--2-2-2--2-2-2--2-2-2--2-2-2-----------|

Verse

Chorus 2
eb|---------------------------------------------------------------------------|
Bb|---------------------------------------------------------------------------|
Gb|--7-7-7-7-7-7-7-7--\9-9-9-9-9-9-9-9-------------------------------------6--|
Db|--7-7-7-7-7-7-7-7--\9-9-9-9-9-9-9-9--4-4-4-4-4-4-4-2~--4-4-4-4-4-4-4-4--6--|
Ab|--5-5-5-5-5-5-5-5--\7-7-7-7-7-7-7-7--4-4-4-4-4-4-4-2~--4-4-4-4-4-4-4-4--4--|
Eb|-------------------------------------2-2-2-2-2-2-2-0~--2-2-2-2-2-2-2-2-----|

eb|---------------------------------------------------------------------------|
Bb|---------------------------------------------------------------------------|
Gb|--7-7-7-7-7-7-7-7--\9-9-9-9-9-9-9-9----------------------------------------|
Db|-.7-7-7-7-7-7-7-7--\9-9-9-9-9-9-9-9--4-4-4--4-4-4--4-4-4--4-4-4--4-4-4-----|
Ab|--5-5-5-5-5-5-5-5--\7-7-7-7-7-7-7-7--4-4-4--4-4-4--4-4-4--4-4-4--4-4-4-----|
Eb|-------------------------------------2-2-2--2-2-2--2-2-2--2-2-2--2-2-2-----|

eb|---------------------------------------------------------------------------|
Bb|---------------------------------------------------------------------------|
Gb|---------------------------------------------------------------------------|
Db|--4-4-4--4-4-4--4-4-4--4-4-4--4-4-4--4-4-4--4-4-4--4-4-4--4-4-4--4-4-4-----|
Ab|--4-4-4--4-4-4--4-4-4--4-4-4--4-4-4--4-4-4--4-4-4--4-4-4--4-4-4--4-4-4-----|
Eb|--2-2-2--2-2-2--2-2-2--2-2-2--2-2-2--2-2-2--2-2-2--2-2-2--2-2-2--2-2-2-----|

eb|---------------------------------------------------------------------------|
Bb|---------------------------------------------------------------------------|
Gb|---------------------------------------------------------------------------|
Db|--4-4-4-4-------4~--------------------4~-----------------------------------|
Ab|--4-4-4-4-------4~--------------------4~-----------------------------------|
Eb|--2-2-2-2-------2~--------------------2~-----------------------------------|

eb|---------------------------------------------------------------------------|
Bb|---------------------------------------------------------------------------|
Gb|---------------------------------------------------------------------------|
Db|---------------------------------------------------------------------------|
Ab|---------------------------------------------------------------------------|
Eb|-3-3-3-0-3-3-3-0-3-3-3-0-3-3-3-0-3-3-3-0-3-3-3-0-3-3-3-0-3-3-3-0-3-3-3-0---|

eb|---------------------------------------------------------------------------|
Bb|---------------------------------------------------------------------------|
Gb|---------------------------------------------------------------------------|
Db|---------------------------------------------------------------------------|
Ab|---------------------------------------------------------------------------|
Eb|-3-3-3-0-3-3-3-0-3-3-3-0-3-3-3-0-3-3-3-0-3-3-3-0-3-3-3-0-3-3-3-0-3-3-3-0---|

eb|---------------------------------------------------------------------------|
Bb|---------------------------------------------------------------------------|
Gb|---------------------------------------------------------------------------|
Db|---------------------------------------------------------------------------|
Ab|---------------------------------------------------------------------------|
Eb|-3-3-3-0-3-3-3-0-3-3-3-0-3-3-3-0-3-3-3-0-3-3-3-0-3-3-3-0-3-3-3-0-3-3-3-0---|

eb|---------------------------------------------------------------------------|
Bb|---------------------------------------------------------------------------|
Gb|---------------------------------------------------------------------------|
Db|---------------------------------------------------------------------------|
Ab|---------------------------------------------------------------------------|
Eb|-3-3-3-0-3-3-3-0-3-3-3-0-3-3-3-0-3-3-3-0-3---------------------------------|

Intro (some a short part)

Chorus 3
eb|---------------------------------------------------------------------------|
Bb|---------------------------------------------------------------------------|
Gb|--7-7-7-7-7-7-7-7--\9-9-9-9-9-9-9-9-------------------------------------6--|
Db|--7-7-7-7-7-7-7-7--\9-9-9-9-9-9-9-9--4-4-4-4-4-4-4-2~--4-4-4-4-4-4-4-4--6--|
Ab|--5-5-5-5-5-5-5-5--\7-7-7-7-7-7-7-7--4-4-4-4-4-4-4-2~--4-4-4-4-4-4-4-4--4--|
Eb|-------------------------------------2-2-2-2-2-2-2-0~--2-2-2-2-2-2-2-2-----|

eb|---------------------------------------------------------------------------|
Bb|---------------------------------------------------------------------------|
Gb|--7-7-7-7-7-7-7-7--\2-2-2-2-2-2-2-2----------------------------------------|
Db|-.7-7-7-7-7-7-7-7--\2-2-2-2-2-2-2-2--4-4-4--4-4-4--4-4-4--4-4-4--4-4-4-----|
Ab|--5-5-5-5-5-5-5-5--\0-0-0-0-0-0-0-0--4-4-4--4-4-4--4-4-4--4-4-4--4-4-4-----|
Eb|-------------------------------------2-2-2--2-2-2--2-2-2--2-2-2--2-2-2-----|

eb|---------------------------------------------------------------------------|
Bb|---------------------------------------------------------------------------|
Gb|---------------------------------------------------------------------------|
Db|--4-4-4--4-4-4--4-4-4--4-4-4--4-4-4--4-4-4--4-4-4--4-4-4--4-4-4--4-4-4-----|
Ab|--4-4-4--4-4-4--4-4-4--4-4-4--4-4-4--4-4-4--4-4-4--4-4-4--4-4-4--4-4-4-----|
Eb|--2-2-2--2-2-2--2-2-2--2-2-2--2-2-2--2-2-2--2-2-2--2-2-2--2-2-2--2-2-2-----|

eb|---------------------------------------------------------------------------|
Bb|---------------------------------------------------------------------------|
Gb|---------------------------------------------------------------------------|
Db|--4-4-4-4------------------------------------------------------------------|
Ab|--4-4-4-4------------------------------------------------------------------|
Eb|--2-2-2-2------------------------------------------------------------------|

IT WAS HARD TO TAB, BELIEVE ME! :D
Добавлено: 16.11.2013
Другие материалы по этой песне:
  • Аккорды и текст

Страница создана 16.11.2013
http://primanota.ru/itchy-poopzkid/the-future-chords.htm
Привет, Гость.
Предлагаем пройти революционный курс по гитаре.
Подарок от PrimaNota.Ru, забирай!