PrimaNota.ru - самый крупный в мире бесплатный архив песенных текстов, аккордов, табулатур и нот


Itchy Poopzkid - The Enemy - таба, бас-таба, видео

Регистрация Запомнить меня
Войти через:  Facebook Google Twitter Vk Yandex Mail.ru

Itchy Poopzkid - The Enemy - таба, бас-таба, видео

Печатать
Просмотров: 173
Уроки эстрадного вокала в Санкт-Петербурге
Itchy Poopzkid - The Enemy
Album : Lights Out London

Intro
|------------------|        |--------------------|     
|------------------| then   |--------------------|    
|------------------|        |--------------------|3x   
|-2-2-2-2-2-2-2----|        |--7-5---------------|       
|-2-2-2-2-2-2-2----|        |------7-6-5---------|     
|-0-0-0-0-0-0-0----|        |5-------------------|   

|------------------|    |-------------------|    |-------------------| 
|------------------|    |-------------------|    |-------------------|
|-99-88-77---------|    |--------9-8-7------| 3x |-99-88-77----------|
|-99-88-77---------|    |---7-5--9-8-7------|    |-99-88-77----------|
|-77-66-55-3h5-3---|    |--------7-6-5------|    |-77-66-55-3h5-3----|
|------------------|    |-5-----------------|    |-------------------|

Strophe

|-------------------------------|----------------------------------|
|-------------------------------|----------------------------------|
|-------------------------------|----------------------------------|
|---3-----5--------7---6---5---4|---3------5--------7---9---10---12| 1x
|-------------------------------|----------------------------------|
|-1-----3---3----5---4---3---2--|-1-----3----3----5---7---8---10---|

|-------------------------------|-----------------------------|                   
|-------------------------------|-----------------------------|
|-------------------------------|---------------------999-----| 
|---3-----5--------7---6---5---4|---3-----3-----222---999-----| 
|-------------------------------|---------------222---777-----| 
|-1-----3---3----5---4---3---2--|-1-----5---5---000-----------| 


Refrain x2

Where!               Who!               I!
|-------------------|------------------|------------------|                          
|-------------------|------------------|------------------|
|--------9-8-7------|--------9-8-7-----|--------9-8-7-----| 
|---7-5--9-8-7------|---7-5--9-8-7-----|---7-5--9-8-7-----|   
|--------7-6-5------|--------7-6-5-----|--------7-6-5-----|    
|-5-----------------|-5----------------|-5----------------|

Nanananana!
|-------------------|
|-------------------|    
|-99-88-77----------|   
|-99-88-77----------|
|-77-66-55-3h5-3----|
|-------------------|  

Strophe

Refrain

Bridge 

|-------------------|    |-------------------|
|-------------------|    |-------------------|
|-99-88-77-55-------|    |-99-88-77----------|
|-99-88-77-55-------|    |-99-88-77----------|
|-77-66-55-33-------| x2 |-77-66-55-3h5-3----|
|-------------------|    |-------------------|

(Acoustic guitar)

|-----------1-----------|-----------3-------------|
|-------------1---------|-------------3-----------|
|-----------------------|-------------------------|
|-----3----------3------|-----5----------5--------| 
|---3---3----------3----|---5---5----------5------|  
|-1---------------------|-3-----------------------| 

|-----------0-----------|-----------0-------------|
|-----------------------|-------------------------|
|-----5-------5---------|-------------5-----------|  
|---5---5-------5-------|-----7---------7---------|
|-3---------------3-----|---7---7---------7-------|  
|-----------------------|-5-----------------------| x2

|-----------1-----------|-----------3-------------|
|-------------1---------|-------------3-----------|
|-----------------------|-------------------------|
|-----3----------3------|-----5----------5--------| 
|---3---3----------3----|---5---5----------5------|  
|-1---------------------|-3-----------------------| x1

Strophe

Refrain x4

Ending 

|--------|
|--------|
|--------|
|-7-7-7--|
|-7-7-7--|
|-5-5-5--|  Made by Fabian Schmidt (-Wonka-)
Добавлено: 24.06.2012
Другие материалы по этой песне:

Страница создана 24.06.2012
http://primanota.ru/itchy-poopzkid/the-enemy-chords.htm
Привет, Гость.
Предлагаем пройти революционный курс по гитаре.
Подарок от PrimaNota.Ru, забирай!