PrimaNota.ru - самый крупный в мире бесплатный архив песенных текстов, аккордов, табулатур и нот


Itchy Poopzkid - Stuck In A Daze - таба, бас-таба, видео

Регистрация Запомнить меня
Войти через:  Facebook Google Twitter Vk Yandex Mail.ru

Itchy Poopzkid - Stuck In A Daze - таба, бас-таба, видео

Печатать
Просмотров: 191
Band: Itchy Poopzkid
Song:Stuck In A Daze
Album:Dead Serious
von: xx flood xx
e-mail: guitar_rockstar91@yahoo.de

Intro

Gtr 1
e|------------------------------------------------|(6x)
B|------------------------------------------------|
G|-----------------------11-----------------------|
D|--------13-------13-------------------14----13--|
A|--11-11----11-11----11----11-11-14-11----11-----|
E|------------------------------------------------|



Gtr 1
e|----------------------------------------|(1x)
B|----------------------------------------|
G|----------------------------------------|
D|------9-----9---9-----11-----11---11----|
A|--7-7---7-7---7---9-9----9-9----9-------|
E|----------------------------------------|


e|-----------------------------------------------|--------------------------------------|(1x)
B|-----------------------------------------------|--------------------------------------|
G|-----------------------11----------------------|--------------------------------------|
D|--------13-------13-------------------14----13-|------9-----9---9-----11-----11---11--|
A|--11-11----11-11----11----11-11-14-11----11----|--7-7---7-7---7---9-9----9-9----9-----|
E|-----------------------------------------------|--------------------------------------|

Gtr 1
e|------------------------------------------------|(2x)
B|------------------------------------------------|
G|-----------------------11-----------------------|
D|--------13-------13-------------------14----13--|
A|--11-11----11-11----11----11-11-14-11----11-----|
E|------------------------------------------------|


Добавлено: 21.02.2012
Другие материалы по этой песне:

Страница создана 21.02.2012
http://primanota.ru/itchy-poopzkid/stuck-in-a-daze-chords.htm
Привет, Гость.
Предлагаем пройти революционный курс по гитаре.
Подарок от PrimaNota.Ru, забирай!