PrimaNota.ru - самый крупный в мире бесплатный архив песенных текстов, аккордов, табулатур и нот


Itchy Poopzkid - Pretty Me - таба, бас-таба, видео

Регистрация Запомнить меня
Войти через:  Facebook Google Twitter Vk Yandex Mail.ru

Itchy Poopzkid - Pretty Me - таба, бас-таба, видео

Печатать
Просмотров: 131
Уроки эстрадного вокала в Санкт-Петербурге
Itchy Poopzkid-Pretty Me 
(Dead Serious(2009))
Tuning: Half Step Down

Main Riff:
8x 
eb|----------------------------------------------------------------------|
Bb|----------------------------------------------------------------------|
Gb|----------------------------------------------------------------------|
Db|----------11---8---9----8--11-11--8-----------------------------------|
Ab|--9---9--------------------------------11-----------------------------|
Eb|----------------------------------------------------------------------|

then
eb|----------------------------------------------------------------------|
Bb|----------------------------------------------------------------------|
Gb|-----7--7--7--7--7--7----6--6--6--6--6--6-----------------------------|
Db|-----7--7--7--7--7--7----6--6--6--6--6--6-----------------------------|
Ab|-----5--5--5--5--5--5----4--4--4--4--4--4-----------------------------|
Eb|----------------------------------------------------------------------|


repeat the Main Riff 10 times


then 
eb|----------------------------------------------------------------------|
Bb|----------------------------------------------------------------------|
Gb|-----7--7--7--7--7--7----6--6--6--6--6--6-----------------------------|
Db|-----7--7--7--7--7--7----6--6--6--6--6--6-----------------------------|
Ab|-----5--5--5--5--5--5----4--4--4--4--4--4-----------------------------|
Eb|----------------------------------------------------------------------|

eb|----------------------------------------------------------------------|
Bb|----------------------------------------------------------------------|
Gb|-----7--7--7--7--7--7----9--9--9--9--9--9-----------------------------|
Db|-----7--7--7--7--7--7----9--9--9--9--9--9-----------------------------|
Ab|-----5--5--5--5--5--5----7--7--7--7--7--7-----------------------------|
Eb|----------------------------------------------------------------------|



Refrain:
4x 
eb|-----5--5--5--5--5--5--5--5-----0--0--0--0--0--0--0--0--------------|
Bb|-----5--5--5--5--5--5--5--5-----0--0--0--0--0--0--0--0--------------|
Gb|-----6--6--6--6--6--6--6--6-----1--1--1--1--1--1--1--1--------------|
Db|-----7--7--7--7--7--7--7--7-----2--2--2--2--2--2--2--2--------------|
Ab|-----7--7--7--7--7--7--7--7-----2--2--2--2--2--2--2--2--------------|
Eb|-----5--5--5--5--5--5--5--5-----0--0--0--0--0--0--0--0--------------|


eb|-----2--2--2--2--2--2--2--2-----5--5--5--5--5--5--5--5--------------|
Bb|-----2--2--2--2--2--2--2--2-----7--7--7--7--7--7--7--7--------------|
Gb|-----2--2--2--2--2--2--2--2-----7--7--7--7--7--7--7--7--------------|
Db|-----4--4--4--4--4--4--4--4-----7--7--7--7--7--7--7--7--------------|
Ab|-----4--4--4--4--4--4--4--4-----5--5--5--5--5--5--5--5--------------|
Eb|-----2--2--2--2--2--2--2--2-----------------------------------------|

repeat verse and Refrain

Bridge:
2x
eb|------------------------------------------------------------------------|
Bb|------------------------------------------------------------------------|
Gb|--------------------------------------------------7--7--7--7--9--9--9--9|
Db|--7--7--7--7--8--8--8--8--9--9--9--9--4--4--4--4--7--7--7--7--9--9--9--9|
Ab|--7--7--7--7--8--8--8--8--9--9--9--9--4--4--4--4--5--5--5--5--7--7--7--7|
Eb|--5--5--5--5--6--6--6--6--7--7--7--7--2--2--2--2------------------------|


Refrain and the first 5 notes from the main riff

Rock on!

Добавлено: 03.07.2012
Другие материалы по этой песне:
  • Аккорды и текст

Страница создана 29.06.2012
http://primanota.ru/itchy-poopzkid/pretty-me-chords.htm
Привет, Гость.
Предлагаем пройти революционный курс по гитаре.
Подарок от PrimaNota.Ru, забирай!