PrimaNota.ru - самый крупный в мире бесплатный архив песенных текстов, аккордов, табулатур и нот


Itchy Poopzkid - One Man Revolution - таба, видео

Регистрация Запомнить меня
Войти через:  Facebook Google Twitter Vk Yandex Mail.ru

Itchy Poopzkid - One Man Revolution - таба, видео

Печатать
Просмотров: 113
Уроки эстрадного вокала в Санкт-Петербурге
Itchy Poopzkid - One Man Revolution
Tuning: Half-Step-Down

Intro
eb|--------------------------------------|
Bb|--------------------------------------|
Gb|--6--6--6--6--------6--6--6--6--------|
Db|--6--6--6--6--6--6--6--6--6--6--6--6--|
Ab|--4--4--4--4--6--6--4--4--4--4--6--6--|
Eb|--------------4--4--------------4--4--|

Verse                                                        |distortion here
eb|---------------------------------------------------------------------------|
Bb|---------------------------------------------------------------------------|
Gb|--6-6-6-6-9-9-9-9-6-6-6-6-9-9-9-9-6-6-6-6-9-9-9-9--------------------------|
Db|--6-6-6-6-9-9-9-9-6-6-6-6-9-9-9-9-6-6-6-6-9-9-9-9-7-7-7-7-6-6-6-6----------| x2
Ab|--4-4-4-4-7-7-7-7-4-4-4-4-7-7-7-7-4-4-4-4-7-7-7-7-7-7-7-7-6-6-6-6----------|
Eb|--------------------------------------------------5-5-5-5-4-4-4-4----------|

Pre-Chorus
eb|---------------------------------------|
Bb|---------------------------------------|
Gb|-----6-----9------6--------------------|
Db|--7--6--7--9--6---6--7--9--6--6--6--6--|
Ab|--7--4--7--7--6---4--7--9--6--6--6--6--|
Eb|--5-----5-----4------5--7--4--4--4--4--|

Chorus
eb|---------------------------------------------------------------------------|
Bb|---------------------------------------------------------------------------|
Gb|----------9-9-9-9-6-6-6-6-4-4-4-4---------9-9-9-9--------------------------|
Db|--7-7-7-7-9-9-9-9-6-6-6-6-4-4-4-4-7-7-7-7-9-9-9-9-6-6-6-6------------------| x2
Ab|--7-7-7-7-7-7-7-7-4-4-4-4-2-2-2-2-7-7-7-7-7-7-7-7-6-6-6-6------------------|
Eb|--5-5-5-5-------------------------5-5-5-5---------4-4-4-4------------------|

Intro
Verse
Pre-Chorus
Chorus
Intro (x2)

Bridge                      |distortion here
eb|--------------------------------------------------------------------------|
Bb|--------------------------------------------------------------------------|
Gb|-----9--6--4--------------------------------------------------------------|
Db|--7--9--6--4--7----6--6--6-6-6-6------------------------------------------|
Ab|--7--7--4--2--7----6--6--6-6-6-6------------------------------------------|
Eb|--5-----------5----4--4--4-4-4-4------------------------------------------|

Chorus

End on this
eb|-----------|
Bb|-----------|
Gb|--6-6-6-6--|
Db|--6-6-6-6--|
Ab|--4-4-4-4--|
Eb|-----------|
Добавлено: 24.08.2013
Другие материалы по этой песне:
  • Аккорды и текст

Страница создана 24.08.2013
http://primanota.ru/itchy-poopzkid/one-man-revolution-chords.htm
Привет, Гость.
Предлагаем пройти революционный курс по гитаре.
Подарок от PrimaNota.Ru, забирай!