PrimaNota.ru - самый крупный в мире бесплатный архив песенных текстов, аккордов, табулатур и нот


Itchy Poopzkid - Never Be The Same The Sane - таба, видео

Регистрация Запомнить меня
Войти через:  Facebook Google Twitter Vk Yandex Mail.ru

Itchy Poopzkid - Never Be The Same The Sane - таба, видео

Печатать
Просмотров: 96
Guitar: Sibbi (Sebastian Hafner)
Tuning: Half Step Down (Eb, Ab, Db, Gb, Hb, eb)
From Album „Dead Serious“

Intro

eb---------|
Hb---------|
Gb---------|
Db---------|
Ab---------|
Eb-x-x-x-x-|    

eb---------------------|
Hb---------------------|
Gb---------------------| 4x
Db---------------------|
Ab---------------------|
Eb-3—1-2-3--1-2--3-1-2-|         

Verse
“When will it stop?...”
eb--------------------------------------------------------------------|
Hb--------------------------------------------------------------------|
Gb---------------------------------------------------------5-5-5-5-5--|  2x
Db-------------------------------------------------3-3-3-3-5-5-5-5-5--|
Ab—------------------------------------------------3-3-3-3-3-3-3-3-3--|
Eb-3-x-x-x-x-x-x-x-x-x-x-x-x-x-x-x-x-x-x-x-x-x-x-x-1-1-1-1------------|

Pre-Chorus
“I cannot help I'm slowly dying...”
eb-----------------------------------|
Hb-----------------------------------|
Gb--88-8-8-7-7-7-7---55-5-5-5-5h7-7--|
Db—-88-8-8-7-7-7-7---55-5-5-5-5h7-7--|
Ab--66-6-6-5-5-5-5---33-3-3-3-3h5-5--|
Eb-----------------------------------|

Chorus
„ Too deep, it won't get better...”
eb--------------------------------------------------------------|
Hb--------------------------------------------------------------|
Gb—-5-5-5-5-55------------7-7-7-7-77--------------------7-7-77--|
Db—-5-5-5-5-55-5-5-5-5-55-7-7-7-7-77--5-x-x-4-x-x-2-x-x-7-7-77--|
Ab—-3-3-3-3-33-5-5-5-5-55-5-5-5-5-55--5-x-x-4-x-x-2-x-x-5-5-55--|
Eb-------------3-3-3-3-33-------------3-x-x-2-x-x-0-x-x---------|

eb--------------------------------------------|
Hb--------------------------------------------|
Gb-5-555-55-5555---------------7-777-77-7777--|
Db-5-555-55-5555-5-555-55-5555-7-777-77-7777--|
Ab—3-333-33-3333-5-555-55-5555-5-555-55-5555--|
Eb---------------3-333-33-3333----------------|

Post-Chorus
eb---------------------|----------|
Hb---------------------|----------|
Gb---------------------| 4x  -----|
Db---------------------|------5/--|
Ab---------------------|------5/--|
Eb-3—1-2-3--1-2--3-1-2-|------3/--|         

During the 4th time you play:
eb---------------------|
Hb---------------------|
Gb---------------------| 
Db---------------------|
Ab-2-0-1-2—-0-1--2-0-1-|
Eb---------------------|         

2nd Verse
“...fall asleep with eyes wide open?”
eb---------------------|
Hb---------------------|
Gb----------5-5-5-5-5--|
Db--3-3-3-3-5-5-5-5-5--|
Ab--3-3-3-3-3-3-3-3-3--|
Eb--1-1-1-1------------|

“Hey, this is me - under pressure constantly...”
eb--------------------------------------------------------------------|
Hb--------------------------------------------------------------------|
Gb---------------------------------------------------------5-5-5-5-5--|  
Db-5-x-x-x-x-x-x-x-x-x-x-x-x-x-x-x-x-x-x-x-x-x-x-x-3-3-3-3-5-5-5-5-5--|
Ab—5-x-x-x-x-x-x-x-x-x-x-x-x-x-x-x-x-x-x-x-x-x-x-x-3-3-3-3-3-3-3-3-3--|
Eb-3-x-x-x-x-x-x-x-x-x-x-x-x-x-x-x-x-x-x-x-x-x-x-x-1-1-1-1------------|

Pre-Chorus
“Tried so hard, I can't control this...”
eb----------------------------------------|
Hb----------------------------------------|
Gb--88-8-8-7-7-7-7-7--5-5-5-5-5h7-7-7-77--|
Db—-88-8-8-7-7-7-7-7--5-5-5-5-5h7-7-7-77--|
Ab--66-6-6-5-5-5-5-5--3-3-3-3-3h5-5-5-55--|
Eb----------------------------------------|

Chorus 2x

END
eb---------------------|----------|
Hb---------------------|----------|
Gb---------------------| 4x  -----|
Db---------------------|------5/--|
Ab---------------------|------5/--|
Eb-3—1-2-3--1-2--3-1-2-|------3/--|         

During the 4th time you play:
eb---------------------|
Hb---------------------|
Gb---------------------| 
Db---------------------|
Ab-2-0-1-2—-0-1--2-0-1-|
Eb---------------------|         


Please rate the tab...
Zach 182




Добавлено: 29.06.2012
Другие материалы по этой песне:
  • Аккорды и текст

Страница создана 29.06.2012
http://primanota.ru/itchy-poopzkid/never-be-the-same-the-sane-chords.htm
Привет, Гость.
Предлагаем пройти революционный курс по гитаре.
Подарок от PrimaNota.Ru, забирай!