PrimaNota.ru - самый крупный в мире бесплатный архив песенных текстов, аккордов, табулатур и нот


Itchy Poopzkid - Like It - таба, видео

Регистрация Запомнить меня
Войти через:  Facebook Google Twitter Vk Yandex Mail.ru

Itchy Poopzkid - Like It - таба, видео

Печатать
Просмотров: 72
Уроки эстрадного вокала в Санкт-Петербурге
Itchy Poopzkid - Like It
Tuning: Half-Step-Down

Intro
eb|-------------------------------------------------------------|
Bb|-------------------------------------------------------------|
Gb|-7--7--10-10--------7--7---7--7--10-10-----------------------|
Db|-7--7--10-10-10-10--7--7---7--7--10-10-10-10-5--5--7--7------|
Ab|-5--5--8--8--10-10--5--5---5--5--8--8--10-10-5--5--7--7------|
Eb|-------------8--8----------------------8--8--3--3--5--5------|


eb|---------------------------------------------------|
Bb|---------------------------------------------------|
Gb|-7--7--10-10--------7--7---7--7--10-10-------7--7--|
Db|-7--7--10-10-10-10--7--7---7--7--10-10-10-10-7--7--|
Ab|-5--5--8--8--10-10--5--5---5--5--8--8--10-10-5--5--|
Eb|-------------8--8----------------------8--8--------|

Verse
eb|-------------------------------------------------------------|
Bb|-------------------------------------------------------------|
Gb|-7--7--10-10--------7--7---7--7--10-10-----------------------|
Db|-7--7--10-10-10-10--7--7---7--7--10-10-10-10-5--5--7--7------| x2
Ab|-5--5--8--8--10-10--5--5---5--5--8--8--10-10-5--5--7--7------|
Eb|-------------8--8----------------------8--8--3--3--5--5------|

Verse Interlude
eb|---------------------------------------------------------------------------|
Bb|---------------------------------------------------------------------------|
Gb|--10-10-10-10-10-10-10-10-9-7-----10-10-9-7-7-9-9-9-9-9-9-9-9-6-6-6-6-7----|
Db|------------------------------7-7------------------------------------------|
Ab|---------------------------------------------------------------------------|
Eb|---------------------------------------------------------------------------|

Intro

Chorus
eb|---------------------------------------------------------------------------|
Bb|---------------------------------------------------------------------------|
Gb|-3-3-3-3---------5-5-5-5-7-7-7-7-3-3-3-3---------5-5-5-5-7-7-7-7-----------|
Db|-3-3-3-3-3-3-3-3-5-5-5-5-7-7-7-7-3-3-3-3-3-3-3-3-5-5-5-5-7-7-7-7-----------|
Ab|-1-1-1-1-3-3-3-3-3-3-3-3-5-5-5-5-1-1-1-1-3-3-3-3-3-3-3-3-5-5-5-5-----------|
Eb|---------1-1-1-1-------------------------1-1-1-1---------------------------|

eb|---------------------------------------------------------------------------|
Bb|---------------------------------------------------------------------------|
Gb|-3-3-3-3---------5-5-5-5-7-7-7-7-3-3-3-3---------2-2-2-2-2-2-2-5-----------|
Db|-3-3-3-3-3-3-3-3-5-5-5-5-7-7-7-7-3-3-3-3-3-3-3-3-2-2-2-2-2-2-2-5-----------|
Ab|-1-1-1-1-3-3-3-3-3-3-3-3-5-5-5-5-1-1-1-1-3-3-3-3-0-0-0-0-0-0-0-3
Eb|---------1-1-1-1-------------------------1-1-1-1---------------------------|

Intro

Part before solo
eb|---------------------------------------------------------------------------|
Bb|---------------------------------------------------------------------------|
Gb|---------------------------------------------------------------------------|
Db|---------------------------------------------------------------------------|
Ab|---------4-4-4-4-5-5-5-5-1-1-3-3---------4-4-4-4-5-5-5-5-1-1-3-3-----------|
Eb|-1-1-1-1-------------------------1-1-1-1-----------------------------------|


Solo
eb|---------------------------------------------------------------------------|
Bb|-------------------------10---10----10----10---------------------------10--|
Gb|-/7-7-5-------9-9-7-9-10----9----------------------9-10----10-12-10-12-----|
Db|--------8-7-7--------------------12----10----12-12------12-----------------|
Ab|---------------------------------------------------------------------------|
Eb|---------------------------------------------------------------------------|

eb|------------------------------------------13----13-15-15-15-13-15-17-17-15-|
Bb|----10-13-10-8-10-8h10p8------------13-15----15----------------------------|
Gb|-12---------------------10-7--12-14----------------------------------------|
Db|---------------------------------------------------------------------------|
Ab|---------------------------------------------------------------------------|
Eb|---------------------------------------------------------------------------|
                                    *11 is on octave higher but the same note
eb|-13-15-15-13----15p13h15-17p15h17-11-15--12--------------------------------|
Bb|-------------15-----------------------------14----13-11-10-15\-------------|
Gb|-----------------------------------------------14--------------------------|
Db|---------------------------------------------------------------------------|
Ab|---------------------------------------------------------------------------|
Eb|---------------------------------------------------------------------------|

Intro (just second part)
Chorus (play to the end and put some part of solo in it)
Добавлено: 02.07.2013
Другие материалы по этой песне:
  • Аккорды и текст

Страница создана 02.07.2013
http://primanota.ru/itchy-poopzkid/like-it-chords.htm
Привет, Гость.
Предлагаем пройти революционный курс по гитаре.
Подарок от PrimaNota.Ru, забирай!