PrimaNota.ru - самый крупный в мире бесплатный архив песенных текстов, аккордов, табулатур и нот


Itchy Poopzkid - Leftrightwrong - таба, видео

Регистрация Запомнить меня
Войти через:  Facebook Google Twitter Vk Yandex Mail.ru

Itchy Poopzkid - Leftrightwrong - таба, видео

Печатать
Просмотров: 109
Artist: Itchy Poopkid
Song:   Leftrightwrong
Album:  Time To Ignite

TUNING: Eb Ab Db Gb Bb eb
    OR: D# G# C# F# A# d#

Tabbed by: fresh2k

Akkorde:

A4   (002200)
E    (022100)
A    (002220)
D    (xx0232)
Dm   (xx0231)
A2   (xx0200)
A/D  (xx0220)
F#m  (244222)

Intro:

    A4   E    A    D    A2   A/D  D       2x
e|--0----0----0----2----0----0----2-----|
H|--0----0----2----3----0----2----3-----|
G|--2----1----2----2----2----2----2-----|
D|--2----2----2----0----0----0----0-----|
A|--0----2----0----x----x----x----x-----|
E|--0----0----0----x----x----x----x-----|


Strophe

A4  E          A                   D
  I roll up my sleeves to feel the past
A2             A/D     D
  Force myself to remember
A4  E          A                      D
  thought that this bond was meant to last
A2             A/D         D
  Believing we won't surrender

A4   E             A                       D    A2   A/D D
  It turns out our passionate friendship's more like bargains
A4     E         A                 D    A2        A/D    D          E
  With customers trading heart for skin   and the bodies that we're in



Brigde

E                        D                       E
When I read between your lies it becomes a fortune
E                        D        Dm
You're no longer in disguise, I'm forever gone

 

Refrain

         A             D
Cause it feels like me left is right
         A          E            D
But this right just feels so wrong
       A             D
And it feels like my world ain't here
        A      E          D
Because I just don't belong
        A      E          D~~Dm
Because I just don't belong 


Strophe

A4  E             A                D  A2        A/D   D
    Your precious word falls silently   like an empty raindrop
A4  E           A                D  A2     A/D       D
    Credibility looks like jewelry    on a burgler's mug shot
A4  E            A                D   A2 A/D D
    It's not yet dangerous but an old illusion
A4  E                A                  D    A2       A/D D    E
    Your smile looks like your face got hurt   by contaminated words


Bridge
E                        D                       E
When I read between your lies it becomes a fortune
E                        D        Dm
You're no longer in disguise, I'm forever gone


Refrain
         A             D
Cause it feels like me left is right
         A          E            D
But this right just feels so wrong
       A             D
And it feels like my world ain't here
        A      E          D
Because I just don't belong
        A      E          F#m
Because I just don't belong


                       D
aaahhahhaahhahhhahaaaaahhhh
F#m                    D
aaahhahhaahhahhhahaaaaahhhh
F#m                    D
aaahhahhaahhahhhahaaaaahhhh


E                          D                       E
  When I read between your lies it becomes a fortune
E                         D           Dm
  You're no longer in disguise, I'm forever gone

the single notes are the following (dunno if 100% correct)
eb|------0-------0-------2-------2-------0-------0-------2--------|
Bb|--------0-------0-------3-------3-------0-------0-------3------|
Gb|----1-------1-------2-------2-------1-------1-------2----------|
Db|--2-------2-------0-------0-------2-------2-------0------------|
Ab|---------------------------------------------------------------|
Eb|---------------------------------------------------------------| [end with Dm strumming]


Solo

eb|--2--0---------------------------------------------------------|
Bb|---------2--0--------------------------------------------------|
Gb|-------------------------2----4-2-4-2-4b----4-2-4b-4-2-4-2-----|
Db|-----------------2---4-----------------------------------------|
Ab|---------------------------------------------------------------|
Eb|---------------------------------------------------------------|


refrain 2 x

         A             D
Cause it feels like me left is right
         A          E            D
But this right just feels so wrong
       A             D
And it feels like my world ain't here
        A      E          D
Because I just don't belong
        A      E          D~~Dm
Because I just don't belong


that's it.
Добавлено: 01.06.2012
Другие материалы по этой песне:
  • Аккорды и текст

Страница создана 01.06.2012
http://primanota.ru/itchy-poopzkid/leftrightwrong-chords.htm
Привет, Гость.
Предлагаем пройти революционный курс по гитаре.
Подарок от PrimaNota.Ru, забирай!