PrimaNota.ru - самый крупный в мире бесплатный архив песенных текстов, аккордов, табулатур и нот


Itchy Poopzkid - Last Goodbye - аккорды и текст, таба, видео

Регистрация Запомнить меня
Войти через:  Facebook Google Twitter Vk Yandex Mail.ru

Itchy Poopzkid - Last Goodbye - аккорды и текст, таба, видео

Печатать
Просмотров: 73
Last Goodbye
Itchy Poopzkid
-----------------------------------------------------------------------------
                             Last Goodbye - Itchy Poopzkid
-----------------------------------------------------------------------------
Tabbed by: Uli Roth
E-mail: uliroth@gmx.net

Tuning: 1/2 step down (Eb Ab Db Gb Bb Eb)
(or transpose chords down a half step and play the Eb an octave higher)
(oder die akkorde einen halbton tiefer transponieren und Eb ne oktave höher spielen)


G#m 
 I couldn't have said it all better
     B                    F#
It's one step forward and three steps back
G#m
 She turned my expectations
     B                 F#
From bright white into black

G#m
 Love looked so different on paper
B                      F#
 Now I can't look even with lights low
G#m
 I need more of the medication
    B                 F#
And then I'll let you know

Chorus:

      E                B               F#
eb|-----------------------------------------------------------------------| 
Bb|-----------------------------------------------------------------------|
Gb|-----------------------------------------------------------------------|
Db|-----------------------------------------------------------------------|
Ab|-----------------------------------------------------------------------|
Eb|----0-0-0-0-0-0-0-0-7-7-7-7-7-7-7-7-2-2-2-2-2-2-2-2-2-2-2-2-2-2-2-2----|x2
        (this is how he plays the first part of the chorus. 1/2 step down!)

      E               B               F#
e|-----------------------------------------------------------------------| 
B|-----------------------------------------------------------------------|
G|-----------------------------------------------------------------------|
D|----2-2-2-2-2-2-2-2-9-9-9-9-9-9-9-9-4-4-4-4-4-4-4-4-4-4-4-4-4-4-4-4----|
A|----2-2-2-2-2-2-2-2-9-9-9-9-9-9-9-9-4-4-4-4-4-4-4-4-4-4-4-4-4-4-4-4----|
E|----0-0-0-0-0-0-0-0-7-7-7-7-7-7-7-7-2-2-2-2-2-2-2-2-2-2-2-2-2-2-2-2----| x2
        (and in the second part he plays powerchords)

E           B        F#
 This is my last goodbye
   F#
It says forever
E           B        F#
 This is my last goodbye
      F#
We're done together
E5         B5        F#5
No more illusions in this institution
E5          B5       F#5
 This is my last goodbye

Brigde
 G#5      G#5      G#5      G#5        B5  B5  B5  B5
 1  +  2  +  3  +  4  +  1  +  2   +   3   +   4   +      3x

G#m     B F#

G#m        
 Not even close to perfection
  B                 F#
I can't see us in a crystal ball
G#m
 No bubblegums an no passion
   B              F#
No butterflies at all

G#m
 We have lost our ambition
    B              F#
The fairy dust has diappeared
G#m             
 I look back, I look back and wonder
    B                   F#      E
How could the days turn into ye-ars


Chorus

E           B        F#
 This is my last goodbye
   F#
It says forever
E           B        F#
 This is my last goodbye
      F#
We're done together
E5         B5        F#5
No more illusions in this institution
E5          B5       F#5
 This is my last goodbye

  B5
I make ends meet

I am outta here
  G#5  
I won't be coming back
                       F#5      
Finally found the only way to stay alive
                   E5
We have been going nowhere

    B5
I'm on my feet again
                       G#5
I don't need anyone to help me fall apart

A lack of sympathy
  F#5
I don't care anymore
                   E5
We have been going nowhere

G#m B F#          F#      G#m  B    F#    
               It says forever   
   F#      G#m     B    F#
It says forever 
   F#       G#m     B    F#
It says forever 

Chorus

E           B        F#
 This is my last goodbye
   F#
It says forever
E           B        F#
 This is my last goodbye
      F#
We're done together
E5         B5        F#5
No more illusions in this institution
E5          B5       F#5
 This is my last goodbye
E5         B5        F#5
No more illusions in this institution
E5          B5       F#5
 This is my last goodbye
                G#m
bye baby I know why
Добавлено: 03.12.2013
Другие материалы по этой песне:
  • Аккорды и текст

Страница создана 19.08.2013
http://primanota.ru/itchy-poopzkid/last-goodbye-chords.htm
Привет, Гость.
Предлагаем пройти революционный курс по гитаре.
Подарок от PrimaNota.Ru, забирай!