PrimaNota.ru - самый крупный в мире бесплатный архив песенных текстов, аккордов, табулатур и нот


Itchy Poopzkid - Grip It Tighter - таба, видео

Регистрация Запомнить меня
Войти через:  Facebook Google Twitter Vk Yandex Mail.ru

Itchy Poopzkid - Grip It Tighter - таба, видео

Печатать
Просмотров: 54
-------------------------------------------------------------------------------
                             Grip It Tighter - Itchy Poopzkid
-------------------------------------------------------------------------------
Tabbed by: Freddy
E-mail:

Tuning:Standard


e|---------------------------------------------------------------------------|
B|---------------------------------------------------------------------------|
G|---10-10-8-10-8-10-8-------------------------------------------------------|
D|----------------------10-10-8-10-8-10-8------------------------------------|
A|------------------------------------------11-11-11-11----------------------|
E|----------------------------------------------------11-11-11-11------------|

It's just a little guide for the riff right at the start.

        
For further accompaniment you can improvise withe the Bb-key


It's my first Tab so if you have something to correct or add, feel free to write it in the comments.
        

Hope you enjoy! ;)

************************************

| /   slide up
| \   slide down
| h   hammer-on
| p   pull-off
| ~   vibrato
| +   harmonic
| x   Mute note
| b   Bend
| pb  Pre-bend
| br  Bend release
| pbr Pre-bend release
| brb Bend release bend

************************************
Добавлено: 22.12.2015
Другие материалы по этой песне:
  • Аккорды и текст

Страница создана 22.12.2015
http://primanota.ru/itchy-poopzkid/grip-it-tighter-chords.htm
Привет, Гость.
Предлагаем пройти революционный курс по гитаре.
Подарок от PrimaNota.Ru, забирай!