PrimaNota.ru - самый крупный в мире бесплатный архив песенных текстов, аккордов, табулатур и нот


Itchy Poopzkid - Get Up Get Down - таба, видео

Регистрация Запомнить меня
Войти через:  Facebook Google Twitter Vk Yandex Mail.ru

Itchy Poopzkid - Get Up Get Down - таба, видео

Печатать
Просмотров: 74
Get Up Get Down: Half-Step-Down
Intro (Palm-Muted)
Eb|-----------------------------|
Hb|-----------------------------|
Gb|-44--------------------------|
Db|-44-44-66-2~-----------------|
Ab|-22-44-66-2~-----------------|
Eb|----22-44-0~-----------------|

Intro
Eb|-----------------------------|
Hb|-----------------------------|
Gb|-44--------------------------|
Db|-44-44-66-22-----------------|
Ab|-22-44-66-22-----------------|
Eb|----22-44-00-----------------|

2nd guitar in the intro
Eb|------------------------------|
Hb|------------------------------|
Gb|-44-6-8-66-44-6-8-9-8-6-4-6-8-|
Db|------------------------------|
Ab|-22-4-6-44-22-4-6-7-6-4-2-4-6-|
Eb|------------------------------|

Eb|------------------------------------------|
Hb|------------------------------------------|
Gb|-1111-4-6-8-1111-44-6-8-9-8-4 | 1111 = 11-| Fret
Db|------------------------------------------|
Ab|-9999-2-4-6-9999-22-4-6-7-6-2-------------|
Eb|------------------------------------------|

Verse (Palm Muted)
Eb|-----------------------------|
Hb|-----------------------------|
Gb|-------------------66--------|
Db|-22-44-9-8-66------66-44-2---|
Ab|-22-44-9-9-66--x2--44-44-2---|
Eb|-00-22-7-6-44---------22-0---|

Chorus
Eb|-----------------------------|
Hb|-----------------------------|
Gb|-44----------44----66--------|
Db|-44-44-66-22-44-44-66-2-4~---|
Ab|-22-44-66-22-22-44-44-2-4~---|
Eb|----22-44-00----22----0-2~---|

Intro
Verse + Verse Interlude

Verse Interlude
Eb|-----------------------------|
Hb|-----------------------------|
Gb|-------1-3-4-3-1-------------|
Db|----1-4---------4-2-1--------|
Ab|-2-4-------------------------|
Eb|-----------------------------|

Chorus

Bridge:
Eb|-----------------------------------|
Hb|-----------------------------------|
Gb|-66-8-9-66-8-6-3-4~-2~---------22~-|
Db|-66-8-9-66-8-6-3-4~-2~-2~-(x2)-22~-|
Ab|-44-6-7-44-6-4-1-2~-0~-2~------00~-|
Eb|-----------------------0~----------|

Pre-Chorus (Palm-Muted)
Eb|-----------------------------|
Hb|-----------------------------|
Gb|-----------------------------|
Db|-2222------------------------|
Ab|-----222244440000------------|

2nd guitar in Pre-Chorus
Eb|------------------------------|
Hb|------------------------------|
Gb|------------------------------|
Db|------------------------6-----|
Ab|--9-6-4-6~-9-6-4-2~-9-6---6~--|
Eb|------------------------------|
Eb|------------------------------|
Chorus
Eb|--------------------------------------|
Hb|--------------------------------------|
Gb|-(44)----------44----66-----------44~-|| dont play the chords in the brackets at first
Db|-(44)-44-66-22-44-44-66-2-4~-(x2)-44~-|
Ab|-(22)-44-66-22-22-44-44-2-4~------22~-|
Eb|------22-44-00----22----0-2~----------|
Добавлено: 30.10.2013
Другие материалы по этой песне:
  • Аккорды и текст

Страница создана 26.07.2013
http://primanota.ru/itchy-poopzkid/get-up-get-down-chords.htm
Привет, Гость.
Предлагаем пройти революционный курс по гитаре.
Подарок от PrimaNota.Ru, забирай!