PrimaNota.ru - самый крупный в мире бесплатный архив песенных текстов, аккордов, табулатур и нот


Itchy Poopzkid - Drogenfrau - текст песни, таба, видео

Регистрация Запомнить меня
Войти через:  Facebook Google Twitter Vk Yandex Mail.ru

Itchy Poopzkid - Drogenfrau - текст песни, таба, видео

Печатать
Просмотров: 135
Guitar: Sibbi (Sebastian Hafner)
Tuning: Half Step Down (Eb, Ab, Db, Gb, Hb, eb)
Album: Dead Serious

Intro

“Oh Oh Oh all the energy is low…”

eb-------------------------------------------------------------------|
Hb-------------------------------------------------------------------|
Gb—-4~---7~-----------------------4-4-4-4-4-4-4444--7-7-7-7-7-7-7777-|
Db—-4~---7~---2------5-----7------4-4-4-4-4-4-4444--7-7-7-7-7-7-7777-|
Ab—-2~--—5~—--2—16x—-5-8x—-7-8x---2-2-2-2-2-2-2222--5-5-5-5-5-5-5555-|
Eb------------0------3-----5-----------------------------------------|

eb---------------------|
Hb---------------------|
Gb---------------------|
Db--2------5-----7-----|
Ab—-2—16x—-5-8x—-7-8x--|
Eb--0------3-----5-----|

1st Verse

eb-------------------------------------------|
Hb-------------------------------------------|       
Gb-------------------------------------------|   
Db----4-0-2-----4-00-20---4-0-2-----4-00-20--|  6x
Ab--2-------2-2------------------0-0---------|           
Eb-----------------------3-------------------|           

Pre-Chorus

“Welcome to the show…“

eb------------------------------------------------------------------|
Hb------------------------------------------------------------------|
Gb—-------------------4-4-4-4-4-4-4-4—-2-2-2-2-2-2-2-2--------------|
Db—-2-2--4-5-5-5-5-5--4-4-4-4-4-4-4-4--2-2-2-2-2-2-2-2--2222--xx-5~-|
Ab—-2-2--4-5-5-5-5-5--2-2-2-2-2-2-2-2--0-0-0-0-0-0-0-0--2222--xx-5~-|
Eb--0-0--2-3-3-3-3-3------------------------------------0000--xx-3~-|


Chorus
“Oh Oh Oh all the energy is low…”

eb---------------------------------------------------------|
Hb---------------------------------------------------------|
Gb—-4-4-4-4-4-4-4444--7-7-7-7-7-7-7777---------------------|
Db--4-4-4-4-4-4-4444--7-7-7-7-7-7-7777--2------5-----7-----|  2x
Ab--2-2-2-2-2-2-2222--5-5-5-5-5-5-5555--2—16x—-5-8x—-7-8x--|
Eb--------------------------------------0------3-----5-----|

2nd Verse

eb-------------------------------------------|
Hb-------------------------------------------|       
Gb-------------------------------------------|   
Db----4-0-2-----4-00-20---4-0-2-----4-00-20--|  5x
Ab--2-------2-2------------------0-0---------|           
Eb-----------------------3-------------------|           

Pre-Chorus
Chorus 


Break

“Hell breaks lose the girl seems to enjoy…”

Rhythm Guitar

eb-----|
Hb-----|
Gb—-4--|
Db--4--|  
Ab--2--|
Eb-----|

                                     “Welcome To The Show...”
eb--------------|        eB------------------|
Hb--------------|        Hb------------------|
Gb—-------------|        Gb------------------|
Db--5--7---7-9--|  3x    Db—-5—-7----2~--5~--|
Ab--5--7---7-9--|        Ab—-5—-7----2~--5~--|
Eb--3--5---5-7--|        Eb—-3—-5----0~--3~--|

Lead Guitar

“Her intoxicating company...“
eb----------------------------------------------------------------|
Hb----------------------------------------------------------------|
Gb—-4—-4—-4—-4—-4—-4—-4—-4—--4-4-4-4--4-4—4-4--4-4-4-4--4-4--4-4--|
Db----------------------------------------------------------------|  
Ab--------------------------2—2-2-2------0-0--2—2-2-2-------0-0---|
Eb-----------------------------------3-3---------------3-3--------|

Chorus
eb---------------------------------------------------------|
Hb---------------------------------------------------------|
Gb—-4-4-4-4-4-4-4444--7-7-7-7-7-7-7777---------------------|
Db--4-4-4-4-4-4-4444--7-7-7-7-7-7-7777--2------5-----7-----|  
Ab--2-2-2-2-2-2-2222--5-5-5-5-5-5-5555--2—16x—-5-8x—-7-8x--|
Eb--------------------------------------0------3-----5-----|

eb----------------------------------------------------------|
Hb----------------------------------------------------------|
Gb—-4-4-4-4-4-4-4444--7-7-7-7-7-7-7777----------------------|
Db--4-4-4-4-4-4-4444--7-7-7-7-7-7-7777--2------5555-xx—-2~--| 
Ab--2-2-2-2-2-2-2222--5-5-5-5-5-5-5555--2—16x—-5555-xx—-2~--|
Eb--------------------------------------0------3333-xx—-0~--|


Please rate the tab...
Zach 182




Добавлено: 15.07.2012
Другие материалы по этой песне:
  • Аккорды и текст

Страница создана 15.07.2012
http://primanota.ru/itchy-poopzkid/drogenfrau-chords.htm
Привет, Гость.
Предлагаем пройти революционный курс по гитаре.
Подарок от PrimaNota.Ru, забирай!