PrimaNota.ru - самый крупный в мире бесплатный архив песенных текстов, аккордов, табулатур и нот


Itchy Poopzkid - Dancing In The Sun - таба, видео

Регистрация Запомнить меня
Войти через:  Facebook Google Twitter Vk Yandex Mail.ru

Itchy Poopzkid - Dancing In The Sun - таба, видео

Печатать
Просмотров: 61
-------------------------------------------------------------------------------
                        ITCHY POOPZKID - DANCING IN THE SUN
-------------------------------------------------------------------------------
Tabbed by: denniskohlmann
Official Video: http://youtu.be/O9XfpDSVTPY
Tuning: Drop C#

----- !!! WARNING !!! -----
I mentioned it already on the "Out There"-Tab, that the song was in Drop C#.
So, this song is too. You can play it with Eb-Tuning (Half-Step-Down) if you want,
but I think with those "deep" riffs it sounds better.

The strumming is not exactly the same, I just showed you the muting.
I think you can figure it out :)

Have fun! Suggestions are welcome!


Clean I
eb|----------------------------------------------------------------------------------------|
Bb|-8--xx8--xx8-8-8-7--12--xx12--xx12-12-12-7--8--xx8--xx8-8-8-7--12--xx12--xxxx-----------|
Gb|-9--xx9--xx9-9-9-7--12--xx12--xx12-12-12-7--9--xx9--xx9-9-9-7--12--xx12--xxxx-----------|
Db|-9--xx9--xx9-9-9-x---x--xx-x--xx-x--x--x-x--9--xx9--xx9-9-9-x---x--xx-x--xxxx--5--0--2--|
Ab|-7--xx7--xx7-7-7-5--10--xx10--xx10-10-10-5--7--xx7--xx7-7-7-5--10--xx10--xxxx--5--0--2--|
Db|----xx---xx-------------xx----xx---------------xx---xx-------------xx----xxxx--5--0--2--|

Verse I
eb|---------------------------------------------------------------------------------|
Bb|---------------------------------------------------------------------------------|
Gb|--9--7-------9----9--7-----------------9----9--7-------9----9--7-----------------|
Db|--9--7--5----9----9--7--5----xx-x-x-x--9----9--7--5----9----9--7--5----xx-x-x-x--|
Ab|--7--5--5----7----7--5--5----xx-x-x-x--7----7--5--5----7----7--5--5----xx-x-x-x--|
Db|--------5---------------5----xx-x-x-x-------------5---------------5----xx-x-x-x--|

Clean II
eb|-----------------------------------------------------------------------------------|
Bb|-8--xx8--xx8-8-8-7--12--xx12--xx12-12-12-7--8--xx8--xx8-8-8-7--12--xx12--xx--------|
Gb|-9--xx9--xx9-9-9-7--12--xx12--xx12-12-12-7--9--xx9--xx9-9-9-7--12--xx12--xx--------|
Db|-9--xx9--xx9-9-9-x---x--xx-x--xx-x--x--x-x--9--xx9--xx9-9-9-x---x--xx-x--xx5----5--|
Ab|-7--xx7--xx7-7-7-5--10--xx10--xx10-10-10-5--7--xx7--xx7-7-7-5--10--xx10--xx5----5--|
Db|----xx---xx-------------xx----xx---------------xx---xx-------------xx----xx5----5--|

Chorus I
eb|----------------------------------------------------------------------------|
Bb|----------------------------------------------------------------------------|
Gb|--5--5--5--5--------------------------7--7--7--7-6--5--5--5--5--------------|
Db|--5--5--5--5--5--5--5--5--2--2--2--2--7--7--7--7-6--5--5--5--5--5--5--5--5--|
Ab|--3--3--3--3--5--5--5--5--2--2--2--2--5--5--5--5-4--3--3--3--3--5--5--5--5--|
Db|--------------5--5--5--5--2--2--2--2----------------------------5--5--5--5--|

eb|----------------------------|
Bb|----------------------------|
Gb|----------------------------|
Db|--2--2--2--2--0--0--0--0-1--|
Ab|--2--2--2--2--0--0--0--0-1--|
Db|--2--2--2--2--0--0--0--0-1--|

Clean I

Verse II
eb|---------------------------------------------------------------------------------|
Bb|---------------------------------------------------------------------------------|
Gb|--9--7-------9----9--7-----------------9----9--7-------9----9--7-----------------|
Db|--9--7--5----9----9--7--5----x----x-x--9----9--7--5----9----9--7--5----xx-x-x-x--|
Ab|--7--5--5----7----7--5--5----x----x-x--7----7--5--5----7----7--5--5----xx-x-x-x--|
Db|--------5---------------5----x----x-x-------------5---------------5----xx-x-x-x--|
                             Just stomp here
Clean II
Chorus I

Clean III
eb|---------------------------------------------------------------------------------------|
Bb|-8--xx8--xx8-8-8-7--12--xx12--xx12-12-12-7--8--xx8--xx8-8-8-7--12--xx12--xx12-12-12-7--|
Gb|-9--xx9--xx9-9-9-7--12--xx12--xx12-12-12-7--9--xx9--xx9-9-9-7--12--xx12--xx12-12-12-7--|
Db|-9--xx9--xx9-9-9-x---x--xx-x--xx-x--x--x-x--9--xx9--xx9-9-9-x---x--xx-x--xx-x--x--x-x--|
Ab|-7--xx7--xx7-7-7-5--10--xx10--xx10-10-10-5--7--xx7--xx7-7-7-5--10--xx10--xx10-10-10-5--|
Db|----xx---xx-------------xx----xx---------------xx---xx-------------xx----xx------------|

eb|-----------------------------------------------------------------------------|
Bb|-8--xx8--xx8-8-8-7--12--xx12--xx12-12-12-7--8--xx8--xx8-8-8-7--12------------|
Gb|-9--xx9--xx9-9-9-7--12--xx12--xx12-12-12-7--9--xx9--xx9-9-9-7--12------------|
Db|-9--xx9--xx9-9-9-x---x--xx-x--xx-x--x--x-x--9--xx9--xx9-9-9-x---x----5----5--|
Ab|-7--xx7--xx7-7-7-5--10--xx10--xx10-10-10-5--7--xx7--xx7-7-7-5--10----5----5--|
Db|----xx---xx-------------xx----xx---------------xx---xx---------------5----5--|

Chrous II
eb|----------------------------------------------------------------------------|
Bb|----------------------------------------------------------------------------|
Gb|--5--5--5--5--------------------------7--7--7--7-6--5--5--5--5--------------|
Db|--5--5--5--5--5--5--5--5--2--2--2--2--7--7--7--7-6--5--5--5--5--5--5--5--5--|
Ab|--3--3--3--3--5--5--5--5--2--2--2--2--5--5--5--5-4--3--3--3--3--5--5--5--5--|
Db|--------------5--5--5--5--2--2--2--2----------------------------5--5--5--5--|

eb|-----------------------|
Bb|-----------------------|
Gb|-----------------------|
Db|--2--2--2--2--0--0--0--|
Ab|--2--2--2--2--0--0--0--|
Db|--2--2--2--2--0--0--0--|


************************************

| x   Mute note

************************************
Добавлено: 19.11.2015
Другие материалы по этой песне:
  • Аккорды и текст

Страница создана 19.11.2015
http://primanota.ru/itchy-poopzkid/dancing-in-sun-chords.htm
Привет, Гость.
Предлагаем пройти революционный курс по гитаре.
Подарок от PrimaNota.Ru, забирай!