PrimaNota.ru - самый крупный в мире бесплатный архив песенных текстов, аккордов, табулатур и нот


Itchy Poopzkid - By The Way - таба, видео

Регистрация Запомнить меня
Войти через:  Facebook Google Twitter Vk Yandex Mail.ru

Itchy Poopzkid - By The Way - таба, видео

Печатать
Просмотров: 78
Itchy Poopzkid - By The Way
Tuning: Half-Step-Down

Verse
eb|---------------------------------------------------------------------------|
Bb|---------------------------------------------------------------------------|
Gb|-----------5-----7-----------5-----7---------------------------------------|
Db|--7--2--3--5--5--7--7--2--3--5--5--7--3--2-2-------------------------------|
Ab|--7--2--3--3--5--5--7--2--3--3--5--5--3--2-2-------------------------------|
Eb|--5--0--1-----3-----5--0--1-----3-----1--0-0-------------------------------|

Chorus
eb|---------------------------------------------------------------------------|
Bb|---------------------------------------------------------------------------|
Gb|--5--5--------------------------5--5---------------------------------------|
Db|--5--5--5--5--7--7--3--3--5--5--5--5--5--5--7--7--3--3--5--5---------------|
Ab|--3--3--5--5--7--7--3--3--5--5--3--3--5--5--7--7--3--3--5--5---------------|
Eb|--------3--3--5--5--1--1--3--3--------3--3--5--5--1--1--3--3---------------|

Interlude
eb|---------------------------------------------------------------------------|
Bb|---------------------------------------------------------------------------|
Gb|--2--2--2--2--2--2--2--2---------------------------------------------------|
Db|--2--2--2--2--2--2--2--2---------------------------------------------------|
Ab|--0--0--0--0--0--0--0--0---------------------------------------------------|
Eb|---------------------------------------------------------------------------|

Verse
Chorus

Bridge
eb|---------------------------------------------------------------------------|
Bb|---------------------------------------------------------------------------|
Gb|---------------------------------------------------------------------------|
Db|--6--5--6--6--6-6-6-6-5-5-5-5-6-6-6-6-5-5-5-5------------------------------|
Ab|--6--5--6--5--6-6-6-6-5-5-5-5-6-6-6-6-5-5-5-5------------------------------|
Eb|--4--3--4--3--4-4-4-4-3-3-3-3-4-4-4-4-3-3-3-3------------------------------|

Chorus (palm muted)                     |from this on clean and repeat the chorus
eb|-------------------------------------|--------------------------------------|
Bb|-------------------------------------|--------------------------------------|
Gb|--5--5--------------------------5--5-|--------------------------------------|
Db|--5--5--5--5--7--7--3--3--5--5--5--5-|-5--5--7--7--3--3--5--5---------------|
Ab|--3--3--5--5--7--7--3--3--5--5--3--3-|-5--5--7--7--3--3--5--5---------------|
Eb|--------3--3--5--5--1--1--3--3-------|-3--3--5--5--1--1--3--3---------------|

end on this
eb|--------------------------------|
Bb|--------------------------------|
Gb|--5--5--------------------------|
Db|--5--5--5--5--7--7--3--3--5--5--|
Ab|--3--3--5--5--7--7--3--3--5--5--|
Eb|--------3--3--5--5--1--1--3--3--|
Добавлено: 25.11.2013
Другие материалы по этой песне:
  • Аккорды и текст

Страница создана 25.11.2013
http://primanota.ru/itchy-poopzkid/by-the-way-chords.htm
Привет, Гость.
Предлагаем пройти революционный курс по гитаре.
Подарок от PrimaNota.Ru, забирай!