PrimaNota.ru - самый крупный в мире бесплатный архив песенных текстов, аккордов, табулатур и нот


Itchy Poopzkid - And Ill Walk Away - таба, бас-таба, видео

Регистрация Запомнить меня
Войти через:  Facebook Google Twitter Vk Yandex Mail.ru

Itchy Poopzkid - And Ill Walk Away - таба, бас-таба, видео

Печатать
Просмотров: 152
intro:
e----------------------------------------------------------------|
B----------------------------------------------------------------|
G---------------------------------------------7-----7-----7-----7|
D------7-7---5------------7-7---5--------------------------------|4x
A--------------7-6-5--------------5-6-7---5-5---5-5---5-5---5-5--|
E--5-5----------------5-5----------------------------------------|

verse:
e-----------------------|  |-----------------------------------|
B-----------------------|  |-----------------5-----------------|
G-----------------------|  |-----------------6-----------------|
D------7-7---5----------|4x|-----6-6-6-6-6-6-6-----------------|2x 
A--------------7-6-5----|  |-----6-6-6-6-6-6-4-----------------|
E--5-5------------------|  |-----4-4-4-4-4-4-------------------|
P.M.--------------------|

Chorus:
e---------------------------------------------------------------|
B---------------------------------------------------------------|
G-----6----3---6---7--8-----------------------------------------|
D-6---6----3---6---5--6-----------------------------------------|2x
A-6---4----1---4------------------------------------------------|
E-4-------------------------------------------------------------|
(just listen to the rhythm and you will understand)

Intro 2x

Verse

Chorus

Bridge:(slow part)
e----4-----------8----------4-----4-------|
B----4--4--------8--8-------4--4----------|
G----5----5------8----8-----5-------------|
D----6-----------8----------6-------------|3x
A----6-----------6----------6-------------|
E----4----------------------4-------------|

Bridge:(fast part)
e--------------|-------------------x-x-x-x-x
B--------------|---------------6---x-x-x-x-x
G----3----5----|---6-------6---6---x-x-x-x-x
D----x----x----|---6---6---6---6---x-x-x-x-x
A----1----3----|---4---6---4---4---x-x-x-x-x
E--------------|-------4-----------x-x-x-x-x

Chorus

Intro 2x

Добавлено: 29.06.2012
Другие материалы по этой песне:

Страница создана 09.03.2012
http://primanota.ru/itchy-poopzkid/and-ill-walk-away-chords.htm
Привет, Гость.
Предлагаем пройти революционный курс по гитаре.
Подарок от PrimaNota.Ru, забирай!