PrimaNota.ru - самый крупный в мире бесплатный архив песенных текстов, аккордов, табулатур и нот


It Prevails - Defenses Down - таба, видео

Регистрация Запомнить меня
Войти через:  Facebook Google Twitter Vk Yandex Mail.ru

It Prevails - Defenses Down - таба, видео

Печатать
Просмотров: 225
Defenses Down Tab by It Prevails
Tuning: Drop B
Tabbed by: Cubfan1091
Note: 
**I tabbed this song out from watching a cover video 
of the lead guitar on youtube. I figured out how to play 
it from that. The tuning the guitarist uses in the video 
is Drop C#. I tabbed it in Drop B because It Prevails plays 
in that tuning. So this probably isn't 100% correct, but I tried.**
            Here's the Video link: 
http://www.youtube.com/watch?v=1A3FtnreudA&feature=related
**Since the lead is kinda hard to pick out in the song, it's easier 
if you listen to this as you look at the tabs.**

Legend:
h = hammer on
p = pull off
/ = slide up
b = bend
. = palm mute


0:00-0:27
|------------------------------------------------------6h7p6---6----|
|------------------------------------------------------------7---7--|
|-----------11-------------11-------11-11-11------------------------|
|-------9------9----11-9------9-----9--9--9---222-2-2---------------|
|--9h11---11-----11------11-----11--11-11-11--222-2-2---------------|
|---------------------------------------------222-2-2---------------|
                                              ... .
|-------------------------------------------------------2-----2-----|
|---------------------------------------------------------2-----2---|
|-----------11-------------11-------11-11-11----------------4-----4-|
|-------9------9----11-9------9-----9--9--9---222-2-2---------------|
|--9h11---11-----11------11-----11--11-11-11--222-2-2---------------|
|---------------------------------------------222-2-2---------------|
                                              ... .
|------------------------------------------------------6h7p6---6----|
|------------------------------------------------------------7---7--|
|-----------11-------------11-------11-11-11------------------------|
|-------9------9----11-9------9-----9--9--9---222-2-2---------------|
|--9h11---11-----11------11-----11--11-11-11--222-2-2---------------|
|---------------------------------------------222-2-2---------------|
                                              ... .
|-------------------------------------------------------2-----2-----|
|---------------------------------------------------------2-----2---|
|-----------11-------------11-------11-11-11----------------4-----4-|
|-------9------9----11-9------9-----9--9--9---222-2-2---------------|
|--9h11---11-----11------11-----11--11-11-11--222-2-2---------------|
|---------------------------------------------222-2-2---------------|
                                              ... .

0:27-0:40
|-------------------------------------------------------------------|
|--/17-16-14-12---/17-16-12-14-12h14p12h14p12--/17-16-14-12-----2---|
|-------------------------------------------------------------4-----|
|-------------------------------------------------------------------|
|-------------------------------------------------------------------|
|-------------------------------------------------------------------|


0:40-0:48
|--6h7p6--7/11-9-7------------------|
|-----------------------------------|
|-------------------9-8-6--6h8p6----|
|--------------------------------9--|
|-----------------------------------|
|-----------------------------------|


0:48-1:15
|------------------------------------------------6h7p6---6----|
|----7----------------------------------7--------------7---7--|
|--8---8---8-------------------9----4-----4---4---------------|
|--------9---9/11b-----11---11----6---6-----6-----------------|
|------------------9-9----9-----------------------------------|
|-------------------------------------------------------------|

|----------------------------------------------------------------|
|----7----------------------------------7------------------------|
|--8---8---8-------------------9----4-----4---4-----3---4-3---3--|
|--------9---9/11b-----11---11----6---6-----6-----6---6-----6----|
|------------------9-9----9--------------------------------------|
|----------------------------------------------------------------|

|------------------------------------------------6h7p6---6----|
|----7----------------------------------7--------------7---7--|
|--8---8---8-------------------9----4-----4---4---------------|
|--------9---9/11b-----11---11----6---6-----6-----------------|
|------------------9-9----9-----------------------------------|
|-------------------------------------------------------------|

|----------------------------------------------------------------|
|----7----------------------------------7------------------------|
|--8---8---8-------------------9----4-----4---4-----3---4-3---3--|
|--------9---9/11b-----11---11----6---6-----6-----6---6-----6----|
|------------------9-9----9--------------------------------------|
|----------------------------------------------------------------|


1:15-1:18
|--------------------|
|--------------------|
|--------------------|
|--22222222-44444----|
|--22222222-44444----|
|--22222222-44444----|
   ........ .....

1:18-1:47
|--6h7p6--------6h7p6-------------------------|
|--------7------------7-----------------------|
|----------8------------8--------6h68-6-------|
|------------9------------9--6h9--------------| 
|---------------------------------------------|
|---------------------------------------------| x3

|--6h7p6--------6h7p6-------------------------|
|--------7------------7-----------------------|
|----------8------------8---------------------|
|------------9------------9-------------------| 
|---------------------------------------------|
|---------------------------------------------|


1:47-2:07
|--6h7p6-------6h7p6-------6h7p6-------6h7p6h7p6h7--|
|--------7h9p7-------7h9p7-------7h9p7--------------|
|---------------------------------------------------|
|---------------------------------------------------|
|---------------------------------------------------|
|---------------------------------------------------| x4


2:07-2:18
|---------------------------------------------|
|---------------------------------------------|
|------4-4-4-3-3-3---------4-4-4-3h4p3--------|
|--666-------------4-4-666-------------4h6p4--|
|--666-----------------666--------------------|
|--666-----------------666--------------------|

|--19----18----16----19----18----18-----------|
|-----19----19----19----19----19---19---------|
|---------------------------------------------|
|---------------------------------------------|
|---------------------------------------------|
|---------------------------------------------|x2


2:18-2:29
|---------------------------------------------|
|---------------------------------------------|
|------4-4-4-3-3-3---------4-4-4-3h4h6p4p3h4--|
|--666-------------4-4-666--------------------|
|--666-----------------666--------------------|
|--666-----------------666--------------------|

|--19----18----16----19----18----18-----------|
|-----19----19----19----19----19---19---------|
|---------------------------------------------|
|---------------------------------------------|
|---------------------------------------------|
|---------------------------------------------|x2


2:29-2:33
|-----------------------|
|-----------------------|
|------4-4-4-3-3-3------|
|--666-------------4-4--|
|--666------------------|
|--666------------------|

Thank You. Please Rate.
Добавлено: 11.04.2012
Другие материалы по этой песне:

Страница создана 27.02.2012
http://primanota.ru/it-prevails/defenses-down-chords.htm
Привет, Гость.
Предлагаем пройти революционный курс по гитаре.
Подарок от PrimaNota.Ru, забирай!