PrimaNota.ru - самый крупный в мире бесплатный архив песенных текстов, аккордов, табулатур и нот


It Dies Today - The Caitiff Choir Revelations - текст песни, таба, видео

Регистрация Запомнить меня
Войти через:  Facebook Google Twitter Vk Yandex Mail.ru

It Dies Today - The Caitiff Choir Revelations - текст песни, таба, видео

Печатать
Просмотров: 116
                       THE CAITIFF CHOIR: REVELATIONS
                        As Recorded by It Dies Today
                  (From the 2004 Album THE CAITIFF CHOIR)
                          ©2004 Trustkill Records

Gtr I - (C G C F A D) -'Chris Cappelli'
Gtr II - (C G C F A D) -'Mike Hatalak'

Verse
Gtr I, II
    PM   PM--|   PM|          PM   PM--|   PM|
|--------------------------|-------------------------|
|--------------------------|-------------------------|
|--------------------------|-------------------------|
|--------------------------|-------------------------|
|------8-------8-----8-8-8-|-----7-------7-----7-7-7-|
|--0-0---0-0-0---0-0-------|-0-0---0-0-0---0-0-------|
|
|   PM   PM--|   PM|          PM   PM--|   PM| 
|--------------------------|-------------------------|
|--------------------------|-------------------------|
|--------------------------|-------------------------|
|--------------------------|-------------------------|
|------4-------4-----4-4-4-|-----1-------1-----1-1-1-|
|--0-0---0-0-0---0-0-------|-0-0---0-0-0---0-0-------|
|
|   PM   PM--|   PM|          PM   PM--|   PM|
|--------------------------|-------------------------|
|--------------------------|-------------------------|
|--------------------------|-------------------------|
|--------------------------|-----5-------5-----5-5-5-|
|------8-------8-----8-8-8-|-----7-------7-----7-7-7-|
|--0-0---0-0-0---0-0-------|-0-0---0-0-0---0-0-------|
|
|   PM   PM--|   PM|          PM  PM             PM
|--------------------------|----------------------------|
|--------------------------|----------------------------|
|--------------------------|----------------------------|
|--------------------------|-3---3-------4-4--4p3-------|
|------4-------4-----4-4-4-|-1---1---5p4-4-4--------4h5-|
|--0-0---0-0-0---0-0-------|---0---0-----4-4------0-----|

Pre-Chorus
Gtr I
    PM--|     PM----|           PM--|     PM----|
||----------------------------------------------------------------||
||o--------------------------------------------------------------o||
||----------------------------------------------------------------||
||----------------------------------------------------------------||
||o-------1h4-------------------------1h4------------------------o||
||--0-0-0-----0-0-0-0-2b3r-2b3r-0-0-0-----0-0-0-0-2b3r-2b3r-5b6r--||
|
|Gtr II
| PM--|  PM--|   PM----------|  PM----------|  PM----------|
|------------------------------------------------------------|
|------------------------------------------------------------|
|------------------------------------------------------------|
|------------------------------------------------------------|
|-0-0-0--0-0-0---0-0-0-0-0-0-0--0-0-0-0-0-0-0--0-0-0-0-0-0-0-|
|-0-0-0--0-0-0---0-0-0-0-0-0-0--0-0-0-0-0-0-0--0-0-0-0-0-0-0-|
|
|Gtrs I, II
| PM----------|
|---------------|
|---------------|
|---------------|
|---------------|
|-0-0-0-0-0-0-0-|
|-0-0-0-0-0-0-0-|

Chorus
Gtrs I, II
    PM--|     PM----|           PM--|     PM----|
||----------------------------------------------------------------||
||o--------------------------------------------------------------o||
||----------------------------------------------------------------||
||----------------------------------------------------------------||
||o-------1h4-------------------------1h4------------------------o||
||--0-0-0-----0-0-0-0-2b3r-2b3r-0-0-0-----0-0-0-0-2b3r-2b3r-5b6r--||
|
| PM--|    PM|           PM--|     PM----|
|---------------------------------------------------------|
|---------------------------------------------------------|
|---------------------------------------------------------|
|---------------------------------------------------------|
|-0-0-0------------------------1h4------------------------|
|-0-0-0----0-0-2b3r-2b3r-0-0-0-----0-0-0-0-2b3r-2b3r-5b6r-|
|
| PM----------------|     P.H.
|-----------------------------|
|-----------------------------|
|-----------------------------|
|-----------------------------|
|-------------------------[4]-|
|-5-5-2-2-2-4-4-1-1-1-1h2-----|
|
|        PM  PM         PM------------------------|     P.H.
|-----------------------------------------------------------|
|-----------------------------------------------------------|
|-----------------------------------------------------------|
|-----------------------------------------------------------|
|-1---3-----1---5---4-----------------------------------[4]-|
|---2---4-0---0---6---5-0-0-0-0-5-5-2-2-2-4-4-1-1-1-1h2-----|
|
|        PM  PM         PM----|  PM  PM             PM
|----------------------------------------------------------|
|----------------------------------------------------------|
|----------------------------------------------------------|
|-------------------------------3---3-------4-4--4p3-------|
|-1---3-----1---5---4-----------1---1---5p4-4-4--------4h5-|
|---2---4-0---0---6---5-0-0-0-0---0---0-----4-4------0-----|

Verse II
Gtr I, II
    PM   PM--|   PM|          PM   PM--|   PM|
|--------------------------|-------------------------|
|--------------------------|-------------------------|
|--------------------------|-------------------------|
|--------------------------|-------------------------|
|------8-------8-----8-8-8-|-----7-------7-----7-7-7-|
|--0-0---0-0-0---0-0-------|-0-0---0-0-0---0-0-------|
|
|   PM   PM--|   PM|          PM   PM--|   PM| 
|--------------------------|-------------------------|
|--------------------------|-------------------------|
|--------------------------|-------------------------|
|--------------------------|-------------------------|
|------4-------4-----4-4-4-|-----1-------1-----1-1-1-|
|--0-0---0-0-0---0-0-------|-0-0---0-0-0---0-0-------|
|
|   PM   PM--|   PM|          PM   PM--|   PM|
|--------------------------|-------------------------|
|--------------------------|-------------------------|
|--------------------------|-------------------------|
|--------------------------|-----5-------5-----5-5-5-|
|------8-------8-----8-8-8-|-----7-------7-----7-7-7-|
|--0-0---0-0-0---0-0-------|-0-0---0-0-0---0-0-------|
|
|   PM   PM--|   PM|          PM  PM             PM
|--------------------------|----------------------------|
|--------------------------|----------------------------|
|--------------------------|----------------------------|
|--------------------------|-3---3-------4-4--4p3-------|
|------4-------4-----4-4-4-|-1---1---5p4-4-4--------4h5-|
|--0-0---0-0-0---0-0-------|---0---0-----4-4------0-----|

Chorus II
Gtrs I, II
  PM--|    PM|           PM--|     PM----|
|---------------------------------------------------------|
|---------------------------------------------------------|
|---------------------------------------------------------|
|---------------------------------------------------------|
|-0-0-0------------------------1h4------------------------|
|-0-0-0----0-0-2b3r-2b3r-0-0-0-----0-0-0-0-2b3r-2b3r-5b6r-|
|
|   PM--|     PM----|           PM--|     PM----|                 3x
||----------------------------------------------------------------||
||o--------------------------------------------------------------o||
||----------------------------------------------------------------||
||----------------------------------------------------------------||
||o-------1h4-------------------------1h4------------------------o||
||--0-0-0-----0-0-0-0-2b3r-2b3r-0-0-0-----0-0-0-0-2b3r-2b3r-5b6r--||

Breakdown
Gtrs I, II
  PM------------|
|-----------------|
|-----------------|
|-----------------|
|-----------------|
|-0-0-0--0--0-0-0-|
|-0-0-0--0--0-0-0-|
|
|    PM----------------------------------------------|   4x
||-------------------------------------------------------||
||o-----------------------------------------------------o||
||-------------------------------------------------------||
||-------------------------------------------------------||
||o--0--0--0-0-0--0-0--0-0-0--0-0-0--0-0--0-0-0--0-0-0--o||
||---0--0--0-0-0--0-0--0-0-0--0-0-0--0-0--0-0-0--0-0-0---||
|
| PM-------|
|------------|
|------------|
|------------|
|------------|
|-0-0-0--0-0-|
|-0-0-0--0-0-|

Chorus III
Gtrs I, II
  PM----------------|     P.H.
|-----------------------------|
|-----------------------------|
|-----------------------------|
|-----------------------------|
|-------------------------[4]-|
|-5-5-2-2-2-4-4-1-1-1-1h2-----|
|
|           PM  PM         PM----|    PM
||-----------------------------------------------------||
||o---------------------------------------------------o||
||-----------------------------------------------------||
||-----------------------------------------------------||
||o--1---3-----1---5---4-----------5-2---4-1-----[4]--o||
||-----2---4-0---0---6---5-0-0-0-0-5-2-0-4-1-1h2-------||
|
|        PM  PM         PM----|  PM  PM             PM
|----------------------------------------------------------|
|----------------------------------------------------------|
|----------------------------------------------------------|
|-------------------------------3---3-------4-4--4p3-------|
|-1---3-----1---5---4-----------1---1---5p4-4-4--------4h5-|
|---2---4-0---0---6---5-0-0-0-0---0---0-----4-4------0-----|

Breakdown II
Gtr I
    PM--|     PM----|           PM--|     PM----|
||----------------------------------------------------------------||
||o--------------------------------------------------------------o||
||----------------------------------------------------------------||
||----------------------------------------------------------------||
||o-------1h4-------------------------1h4------------------------o||
||--0-0-0-----0-0-0-0-2b3r-2b3r-0-0-0-----0-0-0-0-2b3r-2b3r-5b6r--||
|
|Gtr II
| PM--|  PM--|   PM----------|  PM----------|  PM----------|
|------------------------------------------------------------|
|------------------------------------------------------------|
|------------------------------------------------------------|
|------------------------------------------------------------|
|-0-0-0--0-0-0---0-0-0-0-0-0-0--0-0-0-0-0-0-0--0-0-0-0-0-0-0-|
|-0-0-0--0-0-0---0-0-0-0-0-0-0--0-0-0-0-0-0-0--0-0-0-0-0-0-0-|
|
|Gtrs I, II
| PM------------|
|-----------------|
|-----------------|
|-----------------|
|-----------------|
|-0-0-0--0--0-0-0-|
|-0-0-0--0--0-0-0-|
|
| PM-----------------------------------------------|
|-------------------------------------------------------|
|-------------------------------------------------------|
|-------------------------------------------------------|
|-------------------------------------------------------|
|-0--0--0-0-0-(0)---0--0--0-0-0-(0)---0--0--0-0-0-(0)---|
|-0--0--0-0-0-(0)---0--0--0-0-0-(0)---0--0--0-0-0-(0)---|
|
| PM-----------------------------|
|-----------------------------------|
|-----------------------------------|
|-----------------------------------|
|-----------------------------------|
|-0--0--0-0-0-(0)---0--0--0-0-0-(0)-|
|-0--0--0-0-0-(0)---0--0--0-0-0-(0)-|

Outro
Gtrs I, II
     PM------------|       PM------------|
||--------------------------------------------------|
||o-------------------------------------------------|
||--------------------------------------------------|
||--------------------------------------------------|
||o--0-0-0--0--0-0-0--2/6--0-0-0--0--0-0-0--2/6-1-1-|
||---0-0-0--0--0-0-0--2/6--0-0-0--0--0-0-0--2/6-1-1-|
|
| PM------------|       PM------------|
|--------------------------------------------------||
|-------------------------------------------------o||
|--------------------------------------------------||
|--------------------------------------------------||
|-0-0-0--0--0-0-0--2/6--0-0-0--0--0-0-0--5-2-3-5--o||
|-0-0-0--0--0-0-0--2/6--0-0-0--0--0-0-0--5-2-3-5---||
|
| PM------------|
|-----------------|
|-----------------|
|-----------------|
|-----------------|
|-0-0-0--0--0-0-0-|
|-0-0-0--0--0-0-0-|



Добавлено: 15.07.2012
Другие материалы по этой песне:
  • Аккорды и текст

Страница создана 23.04.2012
http://primanota.ru/it-dies-today/the-caitiff-choir-revelations-chords.htm
Привет, Гость.
Предлагаем пройти революционный курс по гитаре.
Подарок от PrimaNota.Ru, забирай!