PrimaNota.ru - самый крупный в мире бесплатный архив песенных текстов, аккордов, табулатур и нот


It Dies Today - The Bacchanal Affair - текст песни, таба, видео

Регистрация Запомнить меня
Войти через:  Facebook Google Twitter Vk Yandex Mail.ru

It Dies Today - The Bacchanal Affair - текст песни, таба, видео

Печатать
Просмотров: 119
Уроки эстрадного вокала в Санкт-Петербурге
from intro to first chorus

Key:
.  Palm Mute
/  Slide Up
\  Slide Down
h  Hammer On
p  Pull Off
~  Let Ring

Tuning: Drop B

INTRO
|-----------------------------------------------|
|-----------------------------------------------|
|-----------------------------------------------|
|-------------------------------------3---------|
|-5-------------5-------3-----------3-----------|
|---0-0-0-0-000---0-0-0---0-0-0-0-3-----0-0-0-0-|
|   . . . . ...   . . .   . . . . ~~~~~~. . . . |
|-----------------------------------------------|
|-----------------------------------------------|
|-----------------------------------------------|
|-----------------------------------------------|
|-----------------------------------------------|
|-----------------------------------------------|

|-----------------------------------------------|
|-----------------------------------------------|
|-----------------------------------------------|
|-----------------------------------------------|
|-5-------------5-------3-----------------------|
|---0-0-0-0-000---0-0-0---0-0-0-0-0-3-0-6-5-3-0-|
|   . . . . ...   . . .   . . . .               |
|-----------------------------------------------|
|-----------------------------------------------|
|-----------------------------------------------|
|-----------------------------------------------|
|-----------------------------------------------|
|-----------------------------------------------|

|-----------------------------------------------|
|-----------------------------------------------|
|-----------------------------------------------|
|-------------------------------------3---------|
|-5-------------5-------3-----------3-----------|
|---0-0-0-0-000---0-0-0---0-0-0-0-3-----0-0-0-0-|
|   . . . . ...   . . .   . . . . ~~~~~~. . . . |
|-----------------------------------------------|
|-----------------------------------------------|
|-----------------------------------------------|
|-------------------------------------7---------|
|-8-------------8-------7-----------7-----------|
|---0-0-0-0-000---0-0-0---0-0-0-0-7-----0-0-0-0-|
    . . . . ...   . . .   . . . . ~~~~~~. . . .


|--------------------------------------------------------------|
|--------------------------------------------------------------|
|--------------------------------------------------------------|
|--------------------------------------------------------------|
|-5-------------5-------3--------------------------------------|
|---0-0-0-0-000---0-0-0---0-0-0-0-0-3-0-6-5-3-0--0-3-0-6-5-3-0-|
|   . . . . ...   . . .   . . . .                              |
|--------------------------------------------------------------|
|--------------------------------------------------------------|
|--------------------------------------------------------------|
|--------------------------------------------------------------|
|-8-------------8-------7--------------------------------------|
|---0-0-0-0-000---0-0-0---0-0-0-0-0-3-0-6-5-3-0--0-3-0-6-5-3-0-|
    . . . . ...   . . .   . . . .               

VERSE
|-----------------------------------------------|
|-----------------------------------------------|
|-----------------------------------------------|
|-------------------------------------3---------|
|-5-------------5-------3-----------3-----------|
|---0-0-0-0-000---0-0-0---0-0-0-0-3-----0-0-0-0-|
|   . . . . ...   . . .   . . . . ~~~~~~. . . . |
|-----------------------------------------------|
|-----------------------------------------------|
|-----------------------------------------------|
|-------------------------------------7---------|
|-8-------------8-------7-----------7-----------|
|---0-0-0-0-000---0-0-0---0-0-0-0-7-----0-0-0-0-|
    . . . . ...   . . .   . . . . ~~~~~~. . . .

|-----------------------------------------------|
|-----------------------------------------------|
|-----------------------------------------------|
|-----------------------------------------------|
|-5-------------5-------3-----------------------|
|---0-0-0-0-000---0-0-0---0-0-0-0-0-3-0-6-5-3-0-|
|   . . . . ...   . . .   . . . .               |
|-----------------------------------------------|
|-----------------------------------------------|
|-----------------------------------------------|
|-----------------------------------------------|
|-8-------------8-------7-----------------------|
|---0-0-0-0-000---0-0-0---0-0-0-0-0-3-0-6-5-3-0-|
    . . . . ...   . . .   . . . .               

|-----------------------------------------------|
|-----------------------------------------------|
|-----------------------------------------------|
|-------------------------------------3---------|
|-5-------------5-------3-----------3-----------|
|---0-0-0-0-000---0-0-0---0-0-0-0-3-----0-0-0-0-|
|   . . . . ...   . . .   . . . . ~~~~~~. . . . |
|-----------------------------------------------|
|-----------------------------------------------|
|-----------------------------------------------|
|-------------------------------------7---------|
|-8-------------8-------7-----------7-----------|
|---0-0-0-0-000---0-0-0---0-0-0-0-7-----0-0-0-0-|
    . . . . ...   . . .   . . . . ~~~~~~. . . .

|-----------------------------------------------|
|-----------------------------------------------|
|-----------------------------------------------|
|-----------------------------------------------|
|-5-------------5-------3-----------------------|
|---0-0-0-0-000---0-0-0---0-0-0-0-0-3-0-6-5-3-0-|
|   . . . . ...   . . .   . . . .               |
|-----------------------------------------------|
|-----------------------------------------------|
|-----------------------------------------------|
|-----------------------------------------------|
|-8-------------8-------7-----------------------|
|---0-0-0-0-000---0-0-0---0-0-0-0-0-3-0-6-5-3-0-|
    . . . . ...   . . .   . . . .    

PRE-CHORUS
|------------------------------------------------------|
|------------------------------------------------------|
|------------------------------------------------------|
|------------------------------------------------------|
|-------------------8-7-5------------------------------|
|-0--0--0--0--0-3-0-------7--8--8--5--5--0-3-0-6-5-3-0-|
|                                                      |
|--------------------------------------------------------|
|--------------------------------------------------------|
|--------------------------------------------------------|
|--------------------------------------------------------|
|-------------------12-10-8------------------------------|
|-0--0--0--0--0-3-0---------7--8--8--5--5--0-3-0-6-5-3-0-|

|-----------------------------------------|
|-----------------------------------------|
|-----------------------------------------|
|-----------------------------------------|
|-------------------8-7-5-----------------|
|-0--0--0--0--0-3-0-------7--8-7-5--7-5-3-|
|                                           |
|-------------------------------------------|
|-------------------------------------------|
|-------------------------------------------|
|-------------------------------------------|
|-------------------12-10-8-----------------|
|-0--0--0--0--0-3-0---------7--8-7-5--7-5-3-|

CHORUS
|---------------------------------------------------------|
|---------------------------------------------------------|
|---------------------------------------------------------|
|-7-7-7--7------------------------------------------------|
|-5-5-5--5-8-5--5-5-5-5-5-5--8-------3-5--8\7-3/5-5/7-7/8-|
|------------5--5-5-5-5-5-5--8-000-0-3-5--8\7-3/5-5/7-7/8-|
|                              ... .                      |
|---------------------------------------------------------|
|---------------------------------------------------------|
|---------------------------------------------------------|
|-7-7-7--7------------------------------------------------|
|-5-5-5--5-8-5--5-5-5-5-5-5--8-------3-5--8\7-3/5-5/7-7/8-|
|------------5--5-5-5-5-5-5--8-000-0-3-5--8\7-3/5-5/7-7/8-|
                               ... .

|----------------------------------------------------------|
|----------------------------------------------------------|
|----------------------------------------------------------|
|-7-7-7--7-------------------------------------------------|
|-5-5-5--5-8-5--5-5-5-5-5-5-------3-5----5-7----7-8--7-5-3-|
|------------5--5-5-5-5-5-5--0--0------0------0------------|
|                               .      .      .            |
|--------------------------------------------------------------|
|--------------------------------------------------------------|
|--------------------------------------------------------------|
|-7-7-7--7-----------------------------------------------------|
|-5-5-5--5-8-5--5-5-5-5-5-5-------7-8----8-10----10-12--10-8-7-|
|------------5--5-5-5-5-5-5--0--0------0-------0---------------|
                                .      .       .

|---------------------------------------------------------|
|---------------------------------------------------------|
|---------------------------------------------------------|
|-7-7-7--7------------------------------------------------|
|-5-5-5--5-8-5--5-5-5-5-5-5--8-------3-5--8\7-3/5-5/7-7/8-|
|------------5--5-5-5-5-5-5--8-000-0-3-5--8\7-3/5-5/7-7/8-|
|                              ... .                      |
|---------------------------------------------------------|
|---------------------------------------------------------|
|---------------------------------------------------------|
|-7-7-7--7------------------------------------------------|
|-5-5-5--5-8-5--5-5-5-5-5-5--8-------3-5--8\7-3/5-5/7-7/8-|
|------------5--5-5-5-5-5-5--8-000-0-3-5--8\7-3/5-5/7-7/8-|
                               ... .

|-------------------------------------------------------------------|
|-------------------------------------------------------------------|
|-------------------------------------------------------------------|
|-7-7-7--7----------------------------------------------------------|
|-5-5-5--5-8-5--5-5-5-5-5-5-------3-5----5-7----7-8--7-5-3--8---8p7-|
|------------5--5-5-5-5-5-5--0--0------0------0---------------0-----|
|                               .      .      .               .     |
|--------------------------------------------------------------------------|
|--------------------------------------------------------------------------|
|--------------------------------------------------------------------------|
|-7-7-7--7-----------------------------------------------------------------|
|-5-5-5--5-8-5--5-5-5-5-5-5-------7-8----8-10----10-12--10-8-7--12---12p10-|
|------------5--5-5-5-5-5-5--0--0------0-------0-------------------0-------|
                                .      .       .                   .

sorry but that's all i have right now.
Добавлено: 27.05.2012
Другие материалы по этой песне:
  • Аккорды и текст

Страница создана 27.05.2012
http://primanota.ru/it-dies-today/the-bacchanal-affair-chords.htm
Привет, Гость.
Предлагаем пройти революционный курс по гитаре.
Подарок от PrimaNota.Ru, забирай!