PrimaNota.ru - самый крупный в мире бесплатный архив песенных текстов, аккордов, табулатур и нот


It Dies Today - Thank You For Drinking - текст песни, таба, видео

Регистрация Запомнить меня
Войти через:  Facebook Google Twitter Vk Yandex Mail.ru

It Dies Today - Thank You For Drinking - текст песни, таба, видео

Печатать
Просмотров: 99
------------------------------------------------------------------------------
                             Thank you for drinking - It Dies Today 
------------------------------------------------------------------------------
Tabbed by: S.Taylor
Email: heislegend@live.ca

Tuning: Drop B


CAUTION!  
This song can and will CRUSH YOUR FACE! As you may have noticed in 
the verse, the octave note(s) on the E string are marked as singles.  
Play these notes in coordination with the F#. I decided not to tab every 
single octave note due to symmetries. Listen to the song for timing.  
I'll see you in hell friends! 

Intro
C#|---------------------------------------------------------------------------|
G#|---------------------------------------------------------------------------|
E |---------------------------------------------------------------------------|
B |---------------------------------------------------------------------------|
F#|------------------------------------6----6----6------------------3*--------|
B |3-3-33333-3-3-33333-3-3-33333-3-3-33-0000-0000-0000-1-0000-1-0000----------|
   
GO!!!!!
C#|---------------------------------------------------------------------------|
G#|---------------------------------------------------------------------------|
E |---------------------------------------------------------------------------|
B |---------------------------------------------------------------------------|
F#|---------------------------------------------------------------------------|
B |00000-00000-00000-00000-00000-00000-0-0-0-0-0-0-00000-00000----------------|

I'm calling last call...
C#|---------------------------------------------------------------------------|
G#|---------------------------------------------------------------------------|
E |3-------------------------------6---------------10--------------7----------|
B |---------------------------------------------------------------------------|
F#|1-1-1-1-1-1-1-1-1-1-1-1-1-1-1-1-4-4-4-4-4-4-4-4-8-8-8-8-8-8-8-8-5-5-5-5-5-5|
B |---------------------------------------------------------------------------|

Continued
C#|---------------------------------------------------------------------------|
G#|---------------------------------------------------------------------------|
E |--------------------10------------------------------3----------------------|
B |---------------------------------------------------------------------------|
F#|5-5-5-5-5-5-5-5-5-5-8-8-8-8-8-8-8-8-8-8-8-8-8-8-8-8-1-1-1-1-1-1-1-1-1-1-1-1|
B |--0------------------------------------------------------------------------|

Continued
C#|---------------------------------------------------------------------------|
G#|---------------------------------------------------------------------------|
E |--------6---------------10--------------7----------------------------------|
B |------------------------------------------------------------------------0-0|
F#|1-1-1-1-4-4-4-4-4-4-4-4-8-8-8-8-8-8-8-8-5-5-5-5-5-5-5-5-5-5-5-5-5-5-5-5-0-0|
B |------------------------------------------------------0-----------------0-0|

Continued
C#|---------------------------------------------------------------------------|
G#|---------------------------------------------------------------------------|
E |---------------------------------------------------------------------------|
B |0-0-0-0-0-0-0-0-0-0-0-0-0--------------------------------------------------|
F#|0-0-0-0-0-0-0-0-0-0-0-0-0--------------------------------------------------|
B |0-0-0-0-0-0-0-0-0-0-0-0-0--------------------------------------------------|

LAY YOUR HEAD DOWN!!! x2
C#|---------------------------------------------------------------------------|
G#|---------------------------------------------------------------------------|
E |---------------------------------------------------------------------------|
B |---------------------------------------------------------------------------|
F#|4-11-1-1--1-4-11-1-1-1--1-4-1-4-11-1-1--1-4-11-1-1-3*----------------------|
B |0-00-0-0--0-0-00-0-0-0--0---0---00-0-0--0-0-00-0-0-------------------------|

Fill
C#|---------------------------------------------------------------------------|
G#|---------------------------------------------------------------------------|
E |---------------------------------------------------------------------------|
B |---------------------------------------------------------------------------|
F#|4-11-1-1--1-4-11-1-1-1-----------------------------------------------------|
B |0-00-0-0--0-0-00-0-0-0-----------------------------------------------------|

Suspended in a revolving door...
C#|---------------------------------------------------------------------------|
G#|---------------------------------------------------------------------------|
E |---------------------------------------------------------------------------|
B |---------------------------------------------------------------------------|
F#|4-4-4--4-4-4--1-1--1-1-1---9-9--9-9-9--4-4--4-4-5---4-4--4-4-4---1-1--1-1-1|
B |-0-0-00-0-0-00-0-00-0-0-444-4-44-4-4-22-2-22-2-2-000-0-00-0-0-000-0-00-0-0-|

Continued
C#|---------------------------------------------------------------------------|
G#|---------------------------------------------------------------------------|
E |---------------------------------------------------------------------------|
B |---------------------------------------------------------------------------|
F#|---9-9--9-9-9---4-4---4-4-5-4-11-1-1-1-4-4--4-4-4---1-1--1-1-1--9-9---9-9-9|
B |444-4-44-4-4-222-2-222-2-2--0-00-0-0-0--0-00-0-0-000-0-00-0-0-44-4-444-4-4-|

Continued
C#|---------------------------------------------------------------------------|
G#|---------------------------------------------------------------------------|
E |---------------------------------------------------------------------------|
B |---------------------------------------------------------------------------|
F#|--4-4--4-4-5---------------------------------------------------------------|
B |22-2-22-2-2----------------------------------------------------------------|

LAY THEIR HEADS DOWN!!! x2
C#|---------------------------------------------------------------------------|
G#|---------------------------------------------------------------------------|
E |---------------------------------------------------------------------------|
B |---------------------------------------------------------------------------|
F#|4-11-1-1--1-4-11-1-1-1--1-4-1-4-11-1-1--1-4-11-1-1-3*----------------------|
B |0-00-0-0--0-0-00-0-0-0--0---0---00-0-0--0-0-00-0-0-------------------------|

C#|---------------------------------------------------------------------------|
G#|---------------------------------------------------------------------------|
E |---------------------------------------------------------------------------|
B |---------------------------------------------------------------------------|
F#|4-0-00-4-11-1-1--1-4-11-1-1-1--1-4-1-4-11-1-1--1-4-11-1-1------------------|
B |0-0-00-0-00-0-0--0-0-00-0-0-0--0---0---00-0-0--0-0-00-0-0------------------|

Transition Fill
C#|---------------------------------------------------------------------------|
G#|---------------------------------------------------------------------------|
E |---------------------------------------------------------------------------|
B |---------------------------------------------------------------------------|
F#|-----4-----4-----5-----7--0-0----------------------------------------------|
B |00000-00000-00000-00000---0-0----------------------------------------------|

Absolve your veil of lies... x2                                    
C#|---------------------------------------------------------------------------|
G#|---------------------------------------------------------------------------|
E |---------------------------------------------------------------------------|
B |---------------------------------------------------------------------------|
F#|-----4-----4-----4-----5-----7-----8---------------------------------------|
B |00000-00000-00000-00000-00000-00000--0-0-0-0-0-0-00000-00000---------------|

Reveal your rightful self...                                              OH!
C#|---------------------------------------------------------------------------|
G#|---------------------------------------------------------------------------|
E |---------------------------------------------------------------------------|
B |-----------------------------------------------------------------------(0)-|
F#|-----4-----4-----4-----5-----7-----8-----------------------------------(0)-|
B |00000000000000000000000000000000000--0-0-0-0-0-0-00000-00000-----------(0)-|

Breakdown
C#|---------------------------------------------------------------------------|
G#|---------------------------------------------------------------------------|
E |---------------------------------------------------------------------------|
B |---------------------------------------------------------------------------|
F#|1---------------1-----------------0-1-0-1--------------1-------------------|
B |1-00-0-0-0-0--0-1-00-0-0-0-0-0-0--0-1-0-1-00-0-0-0-0-0-1-00-0-0-0-0-15\4---|

With the scourge of a thousand voices...
C#|---------------------------------------------------------------------------|
G#|---------------------------------------------------------------------------|
E |---------------------------------------------------------------------------|
B |---------------------------------------------------------------------------|
F#|1---------------1-----------------0-1-0-1----------------------------------|
B |1-00-0-0-0-0--0-1-00-0-0-0-0-0-0--0-1-0-1-00-0-0-0-0-0-1-00-0-0-0-0--------|

WE'LL SEE YOU IN HELL!!! x2
C#|---------------------------------------------------------------------------|
G#|---------------------------------------------------------------------------|
E |---------------------------------------------------------------------------|
B |---------------------------------------------------------------------------|
F#|1-00---0---0----1-00---0---0---0--1-1-0-1-00---0---0---1-00---0---0--------|
B |1-00-0-0-0-0--0-1-00-0-0-0-0-0-0--0-1-0-1-00-0-0-0-0-0-1-00-0-0-0-0-15\4---|

HELL!!! x2
C#|---------------------------------------------------------------------------|
G#|---------------------------------------------------------------------------|
E |---------------------------------------------------------------------------|
B |---------------------------------------------------------------------------|
F#|1-0-0-0-0-0-0-----0-0-0-0-0-0-0-0---------0-0-0-0-0-0-----0-0-0-0-0-0------|
B |1-0-0-0-0-0-0-001-0-0-0-0-0-0-0-0-001-001-0-0-0-0-0-0-001-0-0-0-0-0-0-15\--|

Outro
C#|---------------------------------------------------------------------------|
G#|---------------------------------------------------------------------------|
E |---------------------------------------------------------------------------|
B |1-00-0-0--0----------------------------------------------------------------|
F#|1-00-0-0--0----------------------------------------------------------------|
B |1-00-0-0--0----------------------------------------------------------------|
Добавлено: 28.03.2012
Другие материалы по этой песне:
  • Аккорды и текст

Страница создана 28.03.2012
http://primanota.ru/it-dies-today/thank-you-for-drinking-chords.htm
Привет, Гость.
Предлагаем пройти революционный курс по гитаре.
Подарок от PrimaNota.Ru, забирай!