PrimaNota.ru - самый крупный в мире бесплатный архив песенных текстов, аккордов, табулатур и нот


It Dies Today - Sirens - текст песни, таба, видео

Регистрация Запомнить меня
Войти через:  Facebook Google Twitter Vk Yandex Mail.ru

It Dies Today - Sirens - текст песни, таба, видео

Печатать
Просмотров: 99
IT DIES TODAY - "SIRENS"

TUNING: C-G-C-F-A-D

INTRO A - Low volume / Low Distortion
|---------------------------------------------------|
|-----------------------------4---------------------|
|------8-----6----6---------------------------------|
|----6---6----6----6--------6---6---4--6--4--6------|
|--7-------7----7----7----4-------4------4------4---|
|7-----------------------4--------------------------|

INTRO B
|--------------------------|
|--------------------------|
|--------------------------|
|--------------------------|
|-----6-4---6--4---6--4----|
|4-4---4---4--4--4--4------|

|--------------------------|
|--------------------------|
|--------------------------|
|--------------------------|
|-----6-4---6--6---6--4----|
|0-0---0---0--0--0--0------|

-- INTRO A (x1) --

VERSE
|--------------------------------------------------|
|--------------------------------------------------|
|--------------------------------------------------|
|-----4--4--4--6--4--6-6--------4--4--4--6--4--6-6-|
|-----4--4--4--4--4--4-4--0-0-0-4--4--4--4--4--4-4-|
|44444-----4-----4--------0-0-0------0-----0-------|

END OF VERSE
|---------------------------|
|---------------------------|
|---------------------------|
|---------------------------|
|4-4-4-4-4-4-4-4-4-4-4-4-4-4|
|4-4-4-4-4-4-4-4-4-4-4-4-4-4|

CHORUS
|---------------------------------------------------------------------------------------------|
|---------------------------------------------------------------------------------------------|
|---------------------------------------------------------------------------------------------|
|---------------------------------------------------------------------------------------------|
|0--0--0--3--8--8--8--8--5--5--5--5--8--8--8--8--0--0--0--3--8--8--8--8--5--5--5--5--2--2--2--|
|0--0--0--3--8--8--8--8--5--5--5--5--8--8--8--8--0--0--0--3--8--8--8--8--5--5--5--5--2--2--2--|
Добавлено: 06.06.2013
Другие материалы по этой песне:

Страница создана 12.05.2012
http://primanota.ru/it-dies-today/sirens-chords.htm
Привет, Гость.
Предлагаем пройти революционный курс по гитаре.
Подарок от PrimaNota.Ru, забирай!