PrimaNota.ru - самый крупный в мире бесплатный архив песенных текстов, аккордов, табулатур и нот


It Dies Today - Sentiments Of You - текст песни, таба, бас-таба, видео

Регистрация Запомнить меня
Войти через:  Facebook Google Twitter Vk Yandex Mail.ru

It Dies Today - Sentiments Of You - текст песни, таба, бас-таба, видео

Печатать
Просмотров: 197
Уроки эстрадного вокала в Санкт-Петербурге
Band:  It Dies Today
Album: Forever Scorned
Song:  Sentiments of You

.  - palm mute           /  - slide up to
  - slide down to       ~  - vibrato
h  - hammer on           b  - Bend
p  - pull off            Suffixes for bend
t  - tap                 f  - full bend    h - half bend
ph - pinched harmonic    q  - quarter bend t - tap bend
*  - see comment         ^  - Hold bend    r release bend
x  - Stuccatto           ~  - vibrato bend
,  - slight palm mute    () - ghost note, sustained note
"  - tremolo note        <> - Trill

beginning
d|-------------------------------------------------------------------|
a|-------------------------------------------------------------------|
f|-------------------------------------------------------------------|
C|-------------------------------------------------------------------|
G|5-55578-7-7-777810-8-8-8881012-10-13-12-10-12-12-------------------|
C|-------------------------------------------------------------------|

d|-------------------------------------------------------------------|
a|-------------------------------------------------------------------|
f|-------------------------------------------------------------------|
C|-------------------------------------------------------------------|
G|5-55578-7-7-777810-8-8-8881012-10-15-13----------------------------|
C|----------------------------------------10-11----------------------|

d|-------------------------------------------------------------------|
a|-------------------------------------------------------------------|
f|-------------------------------------------------------------------|
C|-------------------------------------------------------------------|
G|4h5p4----5h7p5----7h8p7------888777555777555444555-----------------|
C|-----0000-----0000-----00--66--------------------------------------|
cont.
d|-------------------------------------------------------------------|
a|-------------------------------------------------------------------|
F|-----------------------------------------------ph5-----------------|
C|-------------------------------------------------------------------|
G|4h5p4----5h7p5----7h8p7------888777555777555444--------------------|
C|-----0000-----0000-----00--66--------------------------------------|

d|-------------------------------------------------------------------|
a|-------------------------------------------------------------------|
F|---ph5---ph4---ph5---8888777555777---------------------------------|
C|-------------------------------------------------------------------|
G|-------------------------------------------------------------------|
C|000---000---000---000----------------------------------------------|

d|-------------------------------------------------------------------|
a|-------------------------------------------------------------------|
F|---ph5---ph4---ph5-------------------------------------------------|
C|-------------------------------------------------------------------|
G|----------------------888777555444---------------------------------|
C|000---000---000---000----------------------------------------------|

d|-------------------------------------------------------------------|
a|-------------------------------------------------------------------|
f|-------------------------------------------------------------------|
C|-------------------------------------------------------------------|
G|-------------------------------------------------------------------|
C|666-555-333-222--000-0-000-----------------------------------------|

d|-------------------------------------------------------------------|
a|-------------------------------------------------------------------|
f|-------------------------------------------------------------------|
C|-------------------------------------------------------------------|
G|---7h8p7-6h7p6----7h8p7-6h7p6---7h8p7-6h7p6---7h8p7-6h7p6-10-8-7-8-|
C|666------------666-----------667-----------777---------------------|

d|-------------------------------------------------------------------|
a|-------------------------------------------------------------------|
f|-------------------------------------------------------------------|
C|-------------------------------------------------------------------|
G|--4--5--4-8-7-5---4--5--8-7-5-7-5-4--5--4-8-7-5---4--5--8-7-5-7-5-4|
C|00-00-00-0-0-0--00-00-00-----------00-00-0-0-0--00-00-00-----------|
cont.
d|-------------------------------------------------------------------|
a|-------------------------------------------------------------------|
f|-------------------------------------------------------------------|
C|8-7-5-7-5-3--------------------------------------------------------|
G|-------------------------------------------------------------------|
C|-------------------------------------------------------------------|

d|----------------------------------------------------------------------|
a|----------------------------------------------------------------------|
f|----------------------------------------------------------------------|
C|8*--------7*--------5*--------4*--------------------------------------|
G|8---------7---------5---------4---------------------------------------|
C|----------------------------------------------------------------------|
*let it ring
d|-------------------------------------------------------------------|
a|-------------------------------------------------------------------|
F|----------------------777777777777777777555777---------------------|
C|8888888888777777777777777777777777777777555777---------------------|
G|8888888888777777777777---------------------------------------------|
C|-------------------------------------------------------------------|

d|-------------------------------------------------------------------|
a|-------------------------------------------------------------------|
C|8888888888777777777777-14----14-12--12-11--------------------------|
G|8888888888777777777777---------------------------------------------|
C|-------------------------------------------------------------------|

d|-------------------------------------------------------------------|
a|-------------------------------------------------------------------|
f|-------------------------------------------------------------------|
C|-------------------------------------------------------------------|
G|5-55578-7-7-777810-8-8-8881012-10-13-12-10-12-12-------------------|
C|-------------------------------------------------------------------|

d|-------------------------------------------------------------------|
a|-------------------------------------------------------------------|
f|-------------------------------------------------------------------|
C|-------------------------------------------------------------------|
G|5-55578-7-7-777810-8-8-8881012-10-15-13----------------------------|
C|----------------------------------------10-11-0*-------------------|
*let it ring

END
d|---------------------------------------------------------------------|
a|---------------------------------------------------------------------|
f|---------------------------------------------------------------------|
C|---------------------------------------------------------------------|
G|0-0-0-000-00-0-0-0-000-00-0--0-0-0-000-00-0-0-0-000-00-0-------------|
C|0-0-0-000-00-0-0-0-000-00-0--0-0-0-000-00-0-0-0-000-00---------------|
Добавлено: 10.07.2012
Другие материалы по этой песне:
  • Аккорды и текст

Страница создана 19.04.2012
http://primanota.ru/it-dies-today/sentiments-of-you-chords.htm
Привет, Гость.
Предлагаем пройти революционный курс по гитаре.
Подарок от PrimaNota.Ru, забирай!