PrimaNota.ru - самый крупный в мире бесплатный архив песенных текстов, аккордов, табулатур и нот


It Dies Today - My Promise - текст песни, таба, видео

Регистрация Запомнить меня
Войти через:  Facebook Google Twitter Vk Yandex Mail.ru

It Dies Today - My Promise - текст песни, таба, видео

Печатать
Просмотров: 145
Artist: It Dies Today
Song: My Promise
Album: The Caitiff Choir
Tabber: theguitarmanX

Drop C Tuning

Intro
Both Guitars (those are 1's)
D|----------------------------------------------------------|
A|----------------------------------------------------------|
F|----------------------------------------------------------|
C|----------------------------1*----------------------------|
G|-111111-111111-111-11-11-11----000000-000000-000-00-00-00-|
C|-111111-111111-111-11-11-11----000000-000000-000-00-00-00-|
PM ...... ...... ... .. .. ..    ...... ...... ... .. .. ..

Cont'd (that is a 1 not 11)
D|--------------------------------|
A|--------------------------------|
F|--------------------------------|
C|----------------------------0~~-|
G|-000000-000000-000-00-00-11-0~~-|
C|-000000-000000-000-00-00-11-0~~-|
PM ...... ...... ... .. .. ..

Verse
Both Guitars
D|-----------------------------------------------------------------------|
A|-----------------------------------------------------------------------|
F|-----------------------------------------------------------------------|
C|--------------1----1---1/4------------------------------4---3---7/10-4-|
G|--------------1-00-1-0-1/4-00-4---0-6---0-5-----8---000-4-0-3-0-7/10-4-|
C|-pick-slide//-1-00-1-0-1/4-00---5-0---3-0---8-5---4-000-4-0-3-0-7/10-4-|
PM                ..         ..     .     .           ...   .   .

Chorus
Both Guitars on the first 2 times
D|------------------------------------------------------------|
A|------------------------------------------------------------|
F|-------------7---8-8-----7---8---1111-----7---8---8---------|
C|-3-1-6-2-----x---x-x-----x---x---x-x------x---x---x-3-1-6-2-|
G|-3-1-6-2-----5---6-6-----5---6---9-9------5---6---6-3-1-6-2-|
C|-3-1-6-2-000---0-----000---0---0------000---0---0---3-1-6-2-|
PM         ...   .     ...   .   .      ...   .   .

Guitar 2 plays this on the third and fourth time
D|---------------------------------------------------|
A|---------------------------------------------------|
F|-----4---5-5-----4---5---8-8-----2---5---5---------|
C|-----x---x-x-----x---x---x-x-----x---x---x-3-1-6-2-|
G|-----2---3-3-----2---3---6-6-----2---3---3-3-1-6-2-|
C|-000---0-----000---0---0-----000---0---0---3-1-6-2-|
PM ...   .     ...   .   .     ...   .   .

Bridge
Guitar 1
D|-----------------------------------|
A|-----------------------------------|
F|-------/10~--------10-(strum-alot)-|
C|-0~----/x~~--------x---------------|
G|-0~----/8~~--------8---------------|
C|-0~--------------------------------|

Guitar 2
Добавлено: 10.04.2012
Другие материалы по этой песне:

Страница создана 18.03.2012
http://primanota.ru/it-dies-today/my-promise-chords.htm
Привет, Гость.
Предлагаем пройти революционный курс по гитаре.
Подарок от PrimaNota.Ru, забирай!