PrimaNota.ru - самый крупный в мире бесплатный архив песенных текстов, аккордов, табулатур и нот


It Dies Today - Marigold - текст песни, таба, видео

Регистрация Запомнить меня
Войти через:  Facebook Google Twitter Vk Yandex Mail.ru

It Dies Today - Marigold - текст песни, таба, видео

Печатать
Просмотров: 144
Artist: It Dies Today
Song: Marigold
Album: The Caitiff Choir (Limited Edition)
Tabbed by: Brandon Yates (UG Forum: ThisFireBurns22)

Tuning: Drop C ( C G C F A D)

This is track 6 off of the re-released Limited Edition Caitiff Choir album.  I tabbed
out about a year and half ago and forgot to submit it. I went to look up the tab online to
it today, and there still isn't one...so here you go. This is only the rhythm guitar. 
is close, but not to be taken literally.  This is what I hear at least...


-=Guitar 1=-

Riff 1

D|-----------------------------------------------------------||
A|-----------------------------------------------------------||
F|------9-999-------10-101010------10--9---7---9---10---999--||
C|------x-xxx-------x--x-x-x-------x---x---x---x---x----xxx--||
G|-0----7-777--0----8--8-8-8--0----8---7---5---7---8----777--||
C|-0-00--------0-00-----------0-00---0---0---0---0----0------||
pm   ..          ..             ..   .   .   .   .    .

D|-------------------------------------------------------------||
A|-------------------------------------------------------------||
F|------9-999-------10-101010------10--11---9---10/12-12-12-12-||
C|------x-xxx-------x--x-x-x-------x---x----x---x/-x--x--x--x--|| 2x
G|-0----7-777--0----8--8-8-8--0----8---10---7---8/-10-10-10-10-||
C|-0-00--------0-00-----------0-00---0----0---0----------------||
pm   ..          ..             ..   .   .   .

Riff 2

D|--------------------------||
A|--------------------------||
F|--------------------------||
C|--------------------------||
G|-0----0---0---00---0---0--||
C|-0-00-0-0-0-0-00-0-0-0-0--||
pm   ..   .   .    .   .

Riff 3

   Let chords ring out
D|--------------------||
A|--------------------||
F|--------------------||
C|-0----3----8----10--|| 2x
G|-0----3----8----10--||
C|-0----3----8----10--||

Riff 4

D|-------------------------------||
A|-------------------------------||
F|------7---9---10---------------||
C|-0----x---x---x----------------||
G|-0----5---7---8---0-3/5-5/7-7--||
C|-0-00---0---0-----0-3/5-5/7-7--||
pm   ..   .   .

D|---------------------------------||
A|---------------------------------||
F|------7---9---10-----------------||
C|-0----x---x---x------------------||
G|-0----5---7---8---7-7\5-5/7-1h3--||
C|-0-00---0---0-----7-7\5-5/7------||
pm   ..   .   .

D|-------------------------------||
A|-------------------------------||
F|------7---9---10---------------||
C|-0----x---x---x----------------||
G|-0----5---7---8---0-3/5-5/7-7--||
C|-0-00---0---0-----0-3/5-5/7-7--||
pm   ..   .   .

D|------------------------------||
A|------------------------------||
F|------------------------------||
C|------------------------------||
G|-888888888--1010101010101010--||
C|-888888888--1010101010101010--||

Riff 5

D|---------------------||
A|---------------------||
F|-7-7-7-12-12-12-9-9--||
C|-x-x-x--x--x--x-x-x--||
G|-5-5-5-10-10-10-7-7--||
C|---------------------||

Riff 6

D|-------------------------------------------------||
A|-------------------------------------------------||
F|-------------------------------------------------||
C|-------------------------------------------------||
G|-----------------8p7p5--------3-3---3-----3-3----||
C|-0-0-0-0---0-0-0--------3-3-3-3-3-3-3-3-3-3-3--3-||
pm . . . .   . . .        . . .     .   . .      .

D|-------------------------------------------------||
A|-------------------------------------------------||
F|-------------------------------------------------||
C|-------------------------------------------------|| 2x
G|-----------------8p7p5--------3-3---5-----5-5----||
C|-0-0-0-0---0-0-0--------3-3-3-3-3-3-5-5-5-5-5--5-||
pm . . . .   . . .        . . .     .   . .      .

Riff 7

D|-----------------------------------||
A|-----------------------------------||
F|------7---9---10-------------------||
C|-0----x---x---x----///////////////-||
G|-0----5---7---8---//Pick Scrape//--||
C|-0-00---0---0----///////////////---||
pm   ..   .   .

Riff 8

D|----------||
A|----------||
F|----------||
C|----------||
G|-0-0-0-0--||
C|-0-0-0-0--||
pm . . . .


--------------------
|  Song Structure  |
--------------------
Riff 1
Riff 2
Riff 3
Riff 4
Riff 2
Riff 1
Riff 3
Riff 4
Riff 2
Riff 1
Riff 5
Riff 6
Riff 7
Riff 1
Riff 1 (Only Once)
Riff 8
Добавлено: 20.07.2012
Другие материалы по этой песне:

Страница создана 16.04.2012
http://primanota.ru/it-dies-today/marigold-chords.htm
Привет, Гость.
Предлагаем пройти революционный курс по гитаре.
Подарок от PrimaNota.Ru, забирай!