PrimaNota.ru - самый крупный в мире бесплатный архив песенных текстов, аккордов, табулатур и нот


It Dies Today - Forever Scorned - текст песни, таба, видео

Регистрация Запомнить меня
Войти через:  Facebook Google Twitter Vk Yandex Mail.ru

It Dies Today - Forever Scorned - текст песни, таба, видео

Печатать
Просмотров: 113
Уроки эстрадного вокала в Санкт-Петербурге
DROP C etc.

INTRO
|-------------------------------------|
|-------------------------------------|
|-------------------------------------|
|-------------------8-8-7-7-----------|
|-8-8-7-7-8-8-10-10---------8-8-10-10-|
|-------------------------------------|
|                                     |
|-------------------------------------|
|-------------------------------------|
|-------------------------------------|
|-------------------------------------|
|-------------------------------------|
|-------------------------------------|

RIFF 1
X2
|------------------------------------------------------------|
|------------------------------------------------------------|
|------------------------------------------------------------|
|-7------------7-6------------6-3--------------10-10109--9-9-|
|-5--0-000-000-5-4--0-000-000-4-1--0-000-000-0-8--8-8-7--7-7-|
|----0-000-000------0-000-000------0-000-000-0---------------|
|    .........      .........      ...........               |
|------------------------------------------------------------|
|------------------------------------------------------------|
|------------------------------------------------------------|
|-7------------7-6------------6-3--------------10-10109--9-9-|
|-5--0-000-000-5-4--0-000-000-4-1--0-000-000-0-8--8-8-7--7-7-|
|----0-000-000------0-000-000------0-000-000-0---------------|
     .........      .........      ...........

RIFF 2
|------------------------------------------------------------------|
|------------------------------------------------------------------|
|------------------------------------------------------------------|
|------------------------------------------------------------------|
|-8-8-8-8-8-8-8-8-101010108-8-8-8-7-7-7-7-7-7-7-7-8-8-8-8-7-7-7-7--|
|------------------------------------------------------------------|
|                                                                  |
|------------------------------------------------------------------|
|------------------------------------------------------------------|
|------------------------------------------------------------------|
|------------------------------------------------------------------|
|-1212121212121212131313131212121210101010101010101212121210101010-|
|------------------------------------------------------------------|

|------------------------------------------------------------------|
|------------------------------------------------------------------|
|------------------------------------------------------------------|
|------------------------------------------------------------------|
|------------------------------------------------------------------|
|-8-8-8-8-8-8-8-8-8-8-8-8-8-8-8-8-3-3-3-3-3-3-3-3-2-2-2-2-2-2-2-2--|
|                                                                  |
|------------------------------------------------------------------|
|------------------------------------------------------------------|
|------------------------------------------------------------------|
|------------------------------------------------------------------|
|------------------------------------------------------------------|
|-121212121212121212121212121212127-7-7-7-7-7-7-7-5-5-5-5-5-5-5-5--|

|------------------------------------------------------------------|
|------------------------------------------------------------------|
|------------------------------------------------------------------|
|------------------------------------------------------------------|
|-5-5-5-5-5-5-5-5-7-7-7-7-5-5-5-5-4-4-4-4-4-4-4-4-5-5-5-5-4-4-4-4--|
|------------------------------------------------------------------|
|                                                                  |
|------------------------------------------------------------------|
|------------------------------------------------------------------|
|------------------------------------------------------------------|
|------------------------------------------------------------------|
|-8-8-8-8-8-8-8-8-101010108-8-8-8-7-7-7-7-7-7-7-7-8-8-8-8-7-7-7-7--|
|------------------------------------------------------------------|

|----------------------------|
|----------------------------|
|----------------------------|
|-8------------10-10109--9-9-|
|-8--888-888-8-8--8-8-7--7-7-|
|-8--888-888-8---------------|
|    .........               |
|----------------------------|
|----------------------------|
|----------------------------|
|-8------------10-10109--9-9-|
|-8--888-888-8-8--8-8-7--7-7-|
|-8--888-888-8---------------|
     .........

RIFF 3
X4
|------------------------------------------------------------------|
|------------------------------------------------------------------|
|------------------------------------------------------------------|
|------------------------------------------------------------------|
|-0-0-8---7h8-5h7-0-0-8---7h8-5h7-8-8-8---7h8-5h7-7-7-8---7h8-10p8-|
|-0-0---0---------0-0---0---------8-8---8---------7-7---7----------|
| . .   .         . .   .         . .   .         . .   .          |
|------------------------------------------------------------------|
|------------------------------------------------------------------|
|------------------------------------------------------------------|
|-----7---5h7-3h5-----7---5h7-3h5-----7---5h7-3h5-----7---5h7-8p7--|
|-0-0-------------0-0-------------8-8-------------7-7--------------|
|-0-0---0---------0-0---0---------8-8---8---------7-7---7----------|
  . .   .         . .   .         . .   .         . .   .

RIFF 4
|----------------------------------------------------------------|
|----------------------------------------------------------------|
|----------------------------------------------------------------|
|-0-----------------------------8------------------10-8-7h8p7----|
|-0--000-000-000-000-7-8-10-8---8--888-888-888-888---------------|
|-0--000-000-000-000----------8-8--888-888-888-888------------10-|
|    ...............          .    ...............            .  |
|----------------------------------------------------------------|
|----------------------------------------------------------------|
|----------------------------------------------------------------|
|-0------------------------------------------------10-8-7h8p7----|
|-0--000-000-000-000-7-8-10-8---8--888-888-888-888---------------|
|-0--000-000-000-000----------8-8--888-888-888-888------------10-|
     ...............          .    ...............            .

|------------------------------------------------------------|
|------------------------------------------------------------|
|------------------------------------------------------------|
|-10--10-10-8-7---8--8-8--------0------------------1010109---|
|-10--10-10-------8--8-8-7-8-10-0--000-000-000-000-8-8-8-7---|
|-10--10-10-----8-8--8-8--------0--000-000-000-000---------0-|
|               .                  ...............         . |
|------------------------------------------------------------|
|------------------------------------------------------------|
|------------------------------------------------------------|
|-10--10-10-8-7---8--8-8--------0------------------1010109---|
|-10--10-10-------8--8-8-7-8-10-0--000-000-000-000-8-8-8-7---|
|-10--10-10-----8-8--8-8--------0--000-000-000-000---------0-|
                .                  ...............         .

|----------------------------------------------------------------|
|----------------------------------------------------------------|
|----------------------------------------------------------------|
|-0-----------------------------8------------------10-8-7h8p7----|
|-0--000-000-000-000-7-8-10-8---8--888-888-888-888---------------|
|-0--000-000-000-000----------8-8--888-888-888-888------------10-|
|    ...............          .    ...............            .  |
|----------------------------------------------------------------|
|----------------------------------------------------------------|
|----------------------------------------------------------------|
|-0-----------------------------8------------------10-8-7h8p7----|
|-0--000-000-000-000-7-8-10-8---8--888-888-888-888---------------|
|-0--000-000-000-000----------8-8--888-888-888-888------------10-|
     ...............          .    ...............            .

|----------------------------------------|
|----------------------------------------|
|----------------------------------------|
|-10--10-10-8-7---8--8-8--------0--------|
|-10--10-10-------8--8-8-7-8-10-0--------|
|-10--10-10-----8-8--8-8--------0--------|
|               .                        |
|----------------------------------------|
|----------------------------------------|
|----------------------------------------|
|-10--10-10-8-7---8--8-8-5-7-8--0--------|
|-10--10-10-------8--8-8--------0--------|
|-10--10-10-----8-8--8-8--------0--------|
                .

RIFF 5
X2
|--------------------------------------------------------------|
|--------------------------------------------------------------|
|--------------------------------------------------------------|
|----7---7---7----5---5---5------------------------------------|
|-8----8---8---7----7---7---7--0--000----000--000--000----0-0--|
|------------------------------0--000----000--000--000----0-0--|
| ~~~~~~~~~~~~~~~~~~~~~~~~~~~~~............................... |
|--------------------------------------------------------------|
|--------------------------------------------------------------|
|--------------------------------------------------------------|
|----7---7---7----5---5---5------------------------------------|
|-8----8---8---7----7---7---7--0--000----000--000--000----0-0--|
|------------------------------0--000----000--000--000----0-0--|
  ~~~~~~~~~~~~~~~~~~~~~~~~~~~~~...............................

|--------------------------------------------------------------|
|--------------------------------------------------------------|
|--------------------------------------------------------------|
|----7---7---7----5---5-8---8----------------------------------|
|-8----8---8---7----7-----10---0--000----000--000--000----0-0--|
|------------------------------0--000----000--000--000----0-0--|
| ~~~~~~~~~~~~~~~~~~~~~~~~~~~~~............................... |
|--------------------------------------------------------------|
|--------------------------------------------------------------|
|--------------------------------------------------------------|
|----7---7---7----5---5-8---8----------------------------------|
|-8----8---8---7----7-----10---0--000----000--000--000----0-0--|
|------------------------------0--000----000--000--000----0-0--|
  ~~~~~~~~~~~~~~~~~~~~~~~~~~~~~...............................

|--------------------------------------------------------------|
|--------------------------------------------------------------|
|--------------------------------------------------------------|
|----7---7---7----5---5-8---8----------------------------------|
|-8----8---8---7----7-----10---0--------------------8-7-8-10---|
|------------------------------0-----------------------------0-|
| ~~~~~~~~~~~~~~~~~~~~~~~~~~~~~.                             . |
|--------------------------------------------------------------|
|--------------------------------------------------------------|
|--------------------------------------------------------------|
|----7---7---7----5---5-8---8----------------------------------|
|-8----8---8---7----7-----10---0-------------------------------|
|------------------------------0-------------------------------|
  ~~~~~~~~~~~~~~~~~~~~~~~~~~~~~. 

RIFF 6
BOTH X2
|--------------------------------------------------------------|
|--------------------------------------------------------------|
|--------------------------------------------------------------|
|-0-------------7--7-777-777---5-------------------------------|
|-0-0-000-000-8-8--8-888-888---5--5-555-555-555-8-7-8-10-8-7-8-|
|-0-0-000-000----------------5-5--5-555-555-555----------------|
|   ......... .              .    .............                |
|--------------------------------------------------------------|
|--------------------------------------------------------------|
|--------------------------------------------------------------|
|-0-------------7--7-777-777---5-------------------------------|
|-0-0-000-000-8-8--8-888-888---5--5-555-555-555-8-7-8-10-8-7-8-|
|-0-0-000-000----------------5-5--5-555-555-555----------------|
    ......... .              .    .............

|-------------------------------------------------------------------------------|
|-------------------------------------------------------------------------------|
|-------------------------------------------------------------------------------|
|-0-------------7--7-777-777---5----------------0-0-0-0-5-5-5-5-7-7-7-7-5-5-5-5-|
|-0-0-000-000-8-8--8-888-888---5--5-555-555-555---------------------------------|
|-0-0-000-000----------------5-5--5-555-555-555---------------------------------|
|   ......... .              .    .............                                 |
|-------------------------------------------------------------------------------|
|-------------------------------------------------------------------------------|
|-------------------------------------------------------------------------------|
|-0-------------7--7-777-777---5----------------0-0-0-0-5-5-5-5-7-7-7-7-5-5-5-5-|
|-0-0-000-000-8-8--8-888-888---5--5-555-555-555---------------------------------|
|-0-0-000-000----------------5-5--5-555-555-555---------------------------------|
    ......... .              .    .............

RIFF 7
BOTH X2
|-----------------------------------------------|
|-----------------------------------------------|
|-----------------------------------------------|
|-----------------------------------------------|
|-0----7h8---7h8---7h8---0----7h8---7h8---8h10--|
|-0--0-----0-----0-----0-0--0-----0-----0-----0-|
|    .     .     .     .    .     .     .     . |
|-----------------------------------------------|
|-----------------------------------------------|
|-----------------------------------------------|
|-----------------------------------------------|
|-0----7h8---7h8---7h8---0----7h8---7h8---8h10--|
|-0--0-----0-----0-----0-0--0-----0-----0-----0-|
     .     .     .     .    .     .     .     .

|----------------------------------------------------|
|----------------------------------------------------|
|----------------------------------------------------|
|------------------------10-8-7-8-7----7-------------|
|-0----7h8---7h8---7h8--------------10---10-8-10-8-7-|
|-0--0-----0-----0-----0-----------------------------|
|    .     .     .     .                             |
|----------------------------------------------------|
|----------------------------------------------------|
|----------------------------------------------------|
|------------------------10-8-7-8-7----7-------------|
|-0----7h8---7h8---7h8--------------10---10-8-10-8-7-|
|-0--0-----0-----0-----0-----------------------------|
     .     .     .     .                 

BOTH X2
|-----------------------------------------------|
|-----------------------------------------------|
|-----------------------------------------------|
|-----------------------------------------------|
|-0--0-7h8---7h8---7h8---0--0-7h8---7h8---8h10--|
|-0--0-----0-----0-----0-0--0-----0-----0-----0-|
| ....     .     .     . ....     .     .     . |
|-----------------------------------------------|
|-----------------------------------------------|
|-----------------------------------------------|
|-----------------------------------------------|
|-0--010h12-10h12-10h12--0--010h12-10h12-12h13--|
|-0--0-----0-----0-----0-0--0-----0-----0-----0-|
  ....     .     .     . ....     .     .     .

|----------------------------------------------------|
|----------------------------------------------------|
|----------------------------------------------------|
|------------------------10-8-7-8-7----7-------------|
|-0--0-7h8---7h8---7h8--------------10---10-8-10-8-7-|
|-0--0-----0-----0-----0-----------------------------|
| ....     .     .     .                             |
|----------------------------------------------------|
|----------------------------------------------------|
|----------------------------------------------------|
|------------------------10-8-7-8-7----7-------------|
|-0--010h12-10h12-10h12-------------10---10-8-10-8-7-|
|-0--0-----0-----0-----0-----------------------------|
  ....     .     .     .                 

X3
|------------------------------------------------------|
|------------------------------------------------------|
|------------------------------------------------------|
|--------------------------10-8-7-8-7----7-------------|
|-8-8-8-8-8-8-101010101010------------10---10-8-10-8-7-|
|-8-8-8-8-8-8-101010101010-----------------------------|
| ........................                             |
|------------------------------------------------------|
|------------------------------------------------------|
|------------------------------------------------------|
|--------------------------10-8-7-8-7----7-------------|
|-8-8-8-8-8-8-101010101010------------10---10-8-10-8-7-|
|-8-8-8-8-8-8-101010101010-----------------------------|
  ........................

|--------------------------|
|--------------------------|
|--------------------------|
|--------------------------|
|-8-8-8-8-8-8-101010101010-|
|-8-8-8-8-8-8-101010101010-|
  ........................

RIFF 8
BOTH X2
|---------------------------------------------|
|---------------------------------------------|
|---------------------------------------------|
|-----7---7------5---5------3---3------2---2--|
|-0-0---8----0-0---7----0-0---5----0-0---4----|
|-0-0--------0-0--------0-0--------0-0--------|
| ... ~~~~~~ ... ~~~~~~ ... ~~~~~~ ... ~~~~~~ |
|---------------------------------------------|
|---------------------------------------------|
|---------------------------------------------|
|-----7---7------5---5------3---3------2---2--|
|-0-0---8----0-0---7----0-0---5----0-0---4----|
|-0-0--------0-0--------0-0--------0-0--------|
  ... ~~~~~~ ... ~~~~~~ ... ~~~~~~ ... ~~~~~~

|---------------------------------------------|
|---------------------------------------------|
|---------------------------------------------|
|-----7---7------5---5------7---7------7-10-8-|
|-0-0---8----0-0---7----0-0---8----0-0--------|
|-0-0--------0-0--------0-0--------0-0--------|
| ... ~~~~~~ ... ~~~~~~ ... ~~~~~~ ...        |
|---------------------------------------------|
|---------------------------------------------|
|---------------------------------------------|
|-----7---7------5---5------7---7------7-10-8-|
|-0-0---8----0-0---7----0-0---8----0-0--------|
|-0-0--------0-0--------0-0--------0-0--------|
  ... ~~~~~~ ... ~~~~~~ ... ~~~~~~ ...

RIFF 9
|--------------------------------------------------------|
|--------------------------------------------------------|
|--------------------------------------------------------|
|-----------------------------------------------------*3-|
|-0-0----0-0-0--0-0----0-0-0--0-0----0-0-0--0-0----0-0---|
|-0-0----0-0-0--0-0----0-0-0--0-0----0-0-0--0-0----0-0---|
| ...    .....  ...    .....  ...    .....  ...    ...   |
|--------------------------------------------------------|
|--------------------------------------------------------|
|--------------------------------------------------------|
|-----------------------------------------------------*3-|
|-0-0----0-0-0--0-0----0-0-0--0-0----0-0-0--0-0----0-0---|
|-0-0----0-0-0--0-0----0-0-0--0-0----0-0-0--0-0----0-0---|
  ...    .....  ...    .....  ...    .....  ...    ...

AND RIFF FREAKING 10
X4
|--------------------------------|
|--------------------------------|
|--------------------------------|
|-----------------------------*3-|
|-000-333-222-000-000-333-222----|
|-000-333-222-000-000-333-222----|
| ...........................    |
|--------------------------------|
|--------------------------------|
|--------------------------------|
|-----------------------------*3-|
|-000-333-222-000-000-333-222----|
|-000-333-222-000-000-333-222----|
  ...........................

X8
|--------------------------------|
|--------------------------------|
|--------------------------------|
|-----------------------------*3-|
|-0---3---2---0---0---3---2------|
|-0---3---2---0---0---3---2------|
| .........................      |
|--------------------------------|
|--------------------------------|
|--------------------------------|
|-----------------------------*3-|
|-0---3---2---0---0---3---2------|
|-0---3---2---0---0---3---2------|
  .........................


FIRST RECORDING EXIT
|--------------------------|
|--------------------------|
|--------------------------|
|-7------------------------|
|-5------------------------|
|--------------------------|
|                          |
|--------------------------|
|--------------------------|
|------------2h3p2---------|
|-7--3-2-3-5-------3-------|
|-5-------------------3----|
|--------------------------|

SECOND RECORDING EXIT
|--------------------------|
|--------------------------|
|--------------------------|
|-7------------------------|
|-5------------------------|
|--------------------------|
|                          |
|--------------------------|
|--------------------------|
|--------------------------|
|-12-----------------------|
|-8------------------------|
|--------------------------|
Добавлено: 14.06.2012
Другие материалы по этой песне:
  • Аккорды и текст

Страница создана 03.03.2012
http://primanota.ru/it-dies-today/forever-scorned-chords.htm
Привет, Гость.
Предлагаем пройти революционный курс по гитаре.
Подарок от PrimaNota.Ru, забирай!