PrimaNota.ru - самый крупный в мире бесплатный архив песенных текстов, аккордов, табулатур и нот


It Dies Today - Bridges Left Burning - текст песни, таба, видео

Регистрация Запомнить меня
Войти через:  Facebook Google Twitter Vk Yandex Mail.ru

It Dies Today - Bridges Left Burning - текст песни, таба, видео

Печатать
Просмотров: 123
--------------------------------------------------------------------
                Bridges Left Burning – It Dies Today
--------------------------------------------------------------------
Tabbed by: llama_slap
Email:sk84life@adelphia.net

Tuning: Drop C (C G C F A D)

This song has awesome music, but I couldn't find a tab for it. So here you go. Please 
rate, email whatever because this took me longer than any other tab I have done. It's 
not 100% because I am not in the band, but it's darn close. Have fun!

RIGHT GUITAR

Intro/Verse
D|-----------------------------------------------------------------|
A|-----------------------------------------------------------------|
F|-----------------------------------------------------------------|
C|----7---7----5----7---7-7h8-7p5----7---7----5---7---7-7h8-5------|
G|-00---0---00---0---0------------00---0---00---0---0--------------|
C|-00---0---00---0---0------------00---0---00---0---0--------------|
   ..   .   ..   .   .            ..   .   ..   .   .

D|-----------------------------------------------------------------|
A|-----------------------------------------------------------------|
F|-----------------------------------------------------------------|
C|----7---7----5---7---7-7h8-7p5-----7---7-------------------------|
G|-88---8---88---8---8------------77---7---77-10-7-8-7-7-7h8-8~----|
C|-88---8---88---8---8------------77---7---77----7---7-------------|
   ..   .   ..   .   .            ..   .   ..    .   .

Play Intro x2
Bass Break
Play Intro x2

Cool Part
D|----------------------------------------------------------------|
A|----------------------------------------------------------------|
F|----------------------------------------------------------------|
C|-8----------------------------7------------7--------------------|
G|-8-888-888-888-888-888-888-8--7-777-777--5---8-7h8p7------------|
C|-8-888-888-888-888-888-888-8--7-777-777-------------------------|
     ... ... ... ... ... ... .    ... ...

D|----------------------------------------------------------------|
A|----------------------------------------------------------------|
F|----------------------------------------------------------------|
C|-8----------------------------5---------------------------------|
G|-8-888-888-888-888-888-888-8--5-555-555--5-7-8-7h8p7------------|
C|-8-888-888-888-888-888-888-8--5-555-555-------------------------|
     ... ... ... ... ... ... .    ... ...

Play Cool Part x2


D|--------------------------------------------------------------|
A|--------------------------------------------------------------|
F|--------------------------------------------------------------|
C|-0-----8-----7------00007777888877775555777733335555----------|
G|-0-x32-8-x16-7-x16--------------------------------------------|
C|-0-----8-----7------------------------------------------------|

D|-------------------------------------------|
A|-------------------------------------------|
F|-------------------------------------------|
C|-00007777888810101010888877778888-7--------|
G|-------------------------------------------|
C|-------------------------------------------|
               tens

D|-------------------------------------------|
A|-------------------------------------------|
F|-------------------------------------------|
C|-00007777888877775555777733335555----------|
G|-------------------------------------------|
C|-------------------------------------------|

D|-------------------------------------------|
A|-------------------------------------------|
F|-------------------------------------------|
C|-0000777788887777-10-8-7-8-7---------------|
G|-----------------------------8-10-8--------|
C|-------------------------------------------|

D|--------------------------------------------------|
A|--------------------------------------------------|
F|--------------------------------------------------|
C|-----7bp0-----------7bp0---------------repeat-----|
G|-000------10*~--000------10*~--0-0-0--------------|
C|-000------------000------------0-0-0--------------|
   ...            ...            . . .
 Bp= bend then pulloff

D|--------------------------------------------------|
A|--------------------------------------------------|
F|--------------------------------------------------|
C|----8------8-------------8------8-----------------|
G|-88-8---88-8---8-8-8--88-8---88-8---0-0-0---------|
C|-88-8---88-8---8-8-8--88-8---88-8---0-0-0---------|
   ..     ..     . . .  ..     ..     . . .

D|--------------------------------------------------|
A|--------------------------------------------------|
F|--------------------------------------------------|
C|-----7bp0-----------7bp0---------------repeat-----|
G|-000------10*~--000------10*~--0-0-0--------------|
C|-000------------000------------0-0-0--------------|
   ...            ...            . . .
 Bp= bend then pulloff


D|-------------------------------------------------|
A|-------------------------------------------------|
F|-------------------------------------------------|
C|-----10-8-7h8p7-----10-8-7h8p7-------------------|
G|-888------------888------------8-8-8-------------|
C|-888------------888------------8-8-8-------------|
   ...            ...            . . .

D|-------------------------------------------------|
A|-------------------------------------------------|
F|-------------------------------------------------|
C|-----10-8-7h8p7-----10-8-7h8p7-------------------|
G|-888------------888------------0-0-0-------------|
C|-888------------888------------0-0-0-------------|
   ...            ...            . . .


D|--------------------------------------------------------|
A|--------------------------------------------------------|
F|--------------------------------------------------------|
C|-0--------------7-7-5-5-0-------------8--8---7--7-------|
G|-0-000-000-000-8-8-7-7--0-000-000-000--10-10--8--8------|
C|-0-000-000-000----------0-000-000-000-------------------|
     ... ... ...            ... ... ...

D|-------------------------------------------------------|
A|-------------------------------------------------------|
F|-------------------------------------------------------|
C|-0-------------77775555-0--------------8-8-8-87777-----|x3
G|-0-000-000-000-88887777-0-000-000-000-101010108888-----|
C|-0-000-000-000----------0-000-000-000------------------|
     ... ... ...            ... ... ...

D|------------------------------------------------------------|
A|------------------------------------------------------------|
F|------------------------------------------------------------|
C|-7------5-------8------7------7------5-------8------3--2--0-|
G|-8-trem-7-trem-10-trem-8-trem-8-trem-7-trem-10-trem-5--4--0-|
C|----------------------------------------------------------0-|

D|-----------------------------------------------------------|
A|-----------------------------------------------------------|
F|-----------------------------------------------------------|
C|-0--0--0-0--0--000-000-----0--0--0-0--0--000-000-----------|
G|-0--0--0-0--0--000-000-x3--0--0--0-0--0--000-000----3*~----|
C|-0--0--0-0--0--000-000-----0--0--0-0--0--000-000-----------|
   .  .  . .  .  ... ...     .  .  . .  .  ... ...


D|-----------------------------------------------------------|
A|-----------------------------------------------------------|
F|-----------------------------------------------------------|
C|----------------3---5-7-8--8-10-8-7-8-7--------------------|
G|-5------7---4---------------------------8-10-8-7-----------|
C|-----00---0------------------------------------------------|
       ..   .

D|----------------------------------------------------------|
A|----------------------------------------------------------|
F|----------------------------------------------------------|
C|----------------------------------------------------------|
G|-5-5555-5-555-5-5555-7--444-444-444-444-444-444-----------|
C|----------------------------------------------------------|
     ....   ...   ....    ... ... ... ... ... ...

For this section of palm mutes (and the 4's above),
 you need to do a very light palm mute at a certain
 place for it to sound right.

D|----------------------------------------------------------|
A|----------------------------------------------------------|
F|----------------------------------------------------------|
C|-3-2-3-333-333-333-333-333-555-777-888888888888-----------|
G|----------------------------------------------------------|
C|----------------------------------------------------------|
         ... ... ... ... ... ... ...

D|----------------------------------------------------------|
A|----------------------------------------------------------|
F|----------------------------------------------------------|
C|-10-8-7-8-7----7------------------------------------------|
G|------------10---10-7-8-7---------------------------------|
C|--------------------------10------------------------------|

Hit these fast (but not tremolo fast)
D|----------------------------------------------------------|
A|----------------------------------------------------------|
F|----------------------------------------------------------|
C|----------------------------------------------------------|
G|----------------------------------------------------------|
C|-0-(x24)-8-(x24)-10-(x24)-3-(x12)-2-(x12)-----------------|

Hit these fast (but not tremolo fast)
D|----------------------------------------------------------|
A|----------------------------------------------------------|
F|----------------------------------------------------------|
C|----------------------------------------------------------|
G|--------------------------8-(x12)-7-(x12)-----------------|
C|-0-(x24)-8-(x24)-10-(x24)---------------------------------|

Hit these fast (but not tremolo fast)
D|----------------------------------------------------------|
A|----------------------------------------------------------|
F|----------------------------------------------------------|
C|----------------------------------------------------------|
G|----------------------------------------------------------|
C|-0-(x24)-8-(x24)-10-(x24)-3-(x12)-2-(x12)-----------------|


Outro
D|------------------|
A|------------------|
F|------------------|
C|------------------|
G|-0000000-000-000--|x3
C|-0000000-000-000--|
   ....... ... ...

D|------------------|--------------------|
A|------------------|--------------------|
F|------------------|--------------------|
C|------------------|--------------------|
G|-0000000-000--3*--|-0000000-000-000----|x3(2nd section)
C|-0000000-000------|-0000000-000-000----|
   ....... ...        ....... ... ...


                   Let palm mutes ring from here until end
D|---------------|-----------------|
A|---------------|-----------------|
F|---------------|-----------------|
C|---------------|-----------------|
G|-0000000--0--0-|-0000000-000-000-| x3(2nd section)
C|-0000000--0--0-|-0000000-000-000-|
   .......  .  .   ....... ... ...

D|---------------|-----------------|
A|---------------|-----------------|
F|---------------|-----------------|
C|---------------|-----------------|
G|-0000000--0--0-|-0000000-000-000-| x4(2nd section)
C|-0000000—-0--0-|-0000000-000-000-|
   .......  .  .   ....... ... ...

D|---------|
A|---------|
F|---------|
C|---------|
G|-0000000-|
C|-0000000-|
   .......

LEFT GUITAR

Intro/Verse
D|-----------------------------------------------------------------|
A|-----------------------------------------------------------------|
F|-----------------------------------------------------------------|
C|-----------------------------------------------------------------|
G|-00-8-0-8-00-7-0-8-0-8-8h10-8p7--00-8-0-8-00-7-0-8-0-8-8h10-7----|
C|-00---0---00---0---0-------------00---0---00---0---0-------------|
   ..   .   ..   .   .             ..   .   ..   .   .

D|-----------------------------------------------------------------|
A|-----------------------------------------------------------------|
F|-----------------------------------------------------------------|
C|-----------------------------------------------------------------|
G|-88-8-8-8-88-7-8-8-8-8-8h10-8p7--77-8-7-8-77-7-7-5-7--3-3h5-5~---|
C|-88---8---88---8---8-------------77---7---77---7---7-------------|
   ..   .   ..   .   .             ..   .   ..   .   .


Play Intro x2
Bass Break
Play Intro x2

Cool Part
D|-----------------------------------------------------------------|
A|-----------------------------------------------------------------|
F|-----------------------------------------------------------------|
C|-8------8----7-8-7h8p7----7--------7-----------10----------------|
G|-8-888----10-----------10---10-8---7-777-777-8----12-10h12p10----|
C|-8-888-----------------------------7-777-777---------------------|
     ...                               ... ...
D|-----------------------------------------------------------------|
A|-----------------------------------------------------------------|
F|-----------------------------------------------------------------|
C|-8-8-----8----7-8-7h8p7----7--------5----------------------------|
G|-8-8-888---10-----------10---8------5-555-555-8-10-12-10h12p10---|
C|-8-8-888-----------------------0----5-555-555--------------------|
       ...                              ... ...

Play Cool Part x2

D|-----------------------------------|
A|-----------------------------------|
F|-----------------------------------|
C|-00007777888877775555777733335555--|
G|-----------------------------------|
C|-----------------------------------|

D|-----------------------------------|
A|-----------------------------------|
F|-----------------------------------|
C|-0000777788887777-7-10-8-7-8-------|
G|-----------------------------8-10--|
C|-----------------------------------|

D|-----------------------------------|
A|-----------------------------------|
F|-----------------------------------|
C|-00007777888877775555777733335555--|
G|-----------------------------------|
C|-----------------------------------|

D|-----------------------------------|
A|-----------------------------------|
F|-----------------------------------|
C|-0000777788887777-10-8-7-8-7-------|
G|-----------------------------8-10-8|
C|-----------------------------------|

D|-----------------------------------|
A|-----------------------------------|
F|-----------------------------------|
C|-00007777888877775555777733335555--|
G|-----------------------------------|
C|-----------------------------------|

D|-------------------------------------------|
A|-------------------------------------------|
F|-------------------------------------------|
C|-00007777888810101010888877778888-7--------|
G|-------------------------------------------|
C|-------------------------------------------|
               tens

D|-------------------------------------------|
A|-------------------------------------------|
F|-------------------------------------------|
C|-00007777888877775555777733335555----------|
G|-------------------------------------------|
C|-------------------------------------------|

D|-------------------------------------------|
A|-------------------------------------------|
F|-------------------------------------------|
C|-0000777788887777-10-8-7-8-7---------------|
G|-----------------------------8-10-8--------|
C|-------------------------------------------|

D|--------------------------------------------------|
A|--------------------------------------------------|
F|--------------------------------------------------|
C|-----7bp0-----------7bp0---------------repeat-----|
G|-000------10*~--000------10*~--0-0-0--------------|
C|-000------------000------------0-0-0--------------|
   ...            ...            . . .
 Bp= bend then pulloff

D|-------------------------------------------------|
A|-------------------------------------------------|
F|-------------------------------------------------|
C|-----10-8-7h8p7-----10-8-7h8p7-------------------|
G|-888------------888------------8-8-8-------------|
C|-888------------888------------8-8-8-------------|
   ...            ...            . . .

D|-------------------------------------------------|
A|-------------------------------------------------|
F|-------------------------------------------------|
C|-----10-8-7h8p7-----10-8-7h8p7-------------------|
G|-888------------888------------0-0-0-------------|
C|-888------------888------------0-0-0-------------|
   ...            ...            . . .

D|--------------------------------------------------|
A|--------------------------------------------------|
F|--------------------------------------------------|
C|-----7bp0-----------7bp0---------------repeat-----|
G|-000------10*~--000------10*~--0-0-0--------------|
C|-000------------000------------0-0-0--------------|
   ...            ...            . . .
 Bp= bend then pulloff

D|-------------------------------------------------|
A|-------------------------------------------------|
F|-------------------------------------------------|
C|-----10-8-7h8p7-----10-8-7h8p7-------------------|
G|-888------------888------------8-8-8-------------|
C|-888------------888------------8-8-8-------------|
   ...            ...            . . .

D|-------------------------------------------------|
A|-------------------------------------------------|
F|-------------------------------------------------|
C|-----10-8-7h8p7-----10-8-7h8p7-------------------|
G|-888------------888------------0-0-0-------------|
C|-888------------888------------0-0-0-------------|
   ...            ...            . . .

D|-------------------------------------------------|
A|-------------------------------------------------|
F|-------------------------------------------------|
C|-0--------------0---------0----------------------|
G|-0--------------0---------0----------------------|
C|-0--------------0---------0--pickslide-----------|

D|-----------------------------------------------------------|
A|-----------------------------------------------------------|
F|-----------------------------------------------------------|
C|-0-------------77775555--0--------------8--8--8--8-7-7-7-7-|
G|-0-000-000-000-88887777--0-000-000-000-10-10-10-10-8-8-8-8-|x2
C|-0-000-000-000-----------0-000-000-000---------------------|
     ... ... ...             ... ... ...

D|------------------------------------------------------------|
A|------------------------------------------------------------|
F|------------------------------------------------------------|
C|-7------5-------8------7------7------5-------8------3--2--0-|
G|-8-trem-7-trem-10-trem-8-trem-8-trem-7-trem-10-trem-5--4--0-|
C|----------------------------------------------------------0-|

D|-----------------------------------------------------------|
A|-----------------------------------------------------------|
F|-----------------------------------------------------------|
C|-0--0--0-0--0--000-000-----0--0--0-0--0--000-000----3*~----|
G|-0--0--0-0--0--000-000-x3--0--0--0-0--0--000-000-----------|
C|-0--0--0-0--0--000-000-----0--0--0-0--0--000-000-----------|
   .  .  . .  .  ... ...     .  .  . .  .  ... ...

D|------------------------------------------------------------|
A|------------------------------------------------------------|
F|------------------------------------------------------------|
C|------------------7---8-10-12--12-13-12-10-12-10------------|
G|-8----10---7-------------------------------------12-13-12-10|
C|---00----0-----00-------------------------------------------|
     ..    .     ..

D|----------------------------------------------------------|
A|----------------------------------------------------------|
F|----------------------------------------------------------|
C|----------------------------------------------------------|
G|-8-8888-8-888-8-8888-10-777-777-777-777-777-777-----------|
C|----------------------------------------------------------|
     ....   ...   ....    ... ... ... ... ... ...

                                 (tens and twelves)
D|-------------------------------------------------------------|
A|-------------------------------------------------------------|
F|-------------------------------------------------------------|
C|7-5-7-777-777-777-777-777-888-101010-121212121212121212121212|
G|-------------------------------------------------------------|
C|-------------------------------------------------------------|
        ... ... ... ... ... ...  . . .


D|--------------------|
A|--------------------|
F|--------------------|
C|--------------------|
G|--------------------|
C|-p-i-c-k-s-l-i-d-e--|

                (tens)
D|---------------------------------------------------------------|
A|---------------------------------------------------------------|
F|---------------------------------------------------------------|
C|-------------1010778877(x4)-88557755(x4)-55223322(x3)-----2h3h5|x2
G|88557755(x4)-----------------------------------------2h3h5-----|
C|---------------------------------------------------------------|

Outro
D|------------------|
A|------------------|
F|------------------|
C|------------------|
G|-0000000-000-000--|x3
C|-0000000-000-000--|
   ....... ... ...

D|------------------|--------------------|
A|------------------|--------------------|
F|------------------|--------------------|
C|------------------|--------------------|
G|-0000000-000--3*--|-0000000-000-000----|x3(2nd section)
C|-0000000-000------|-0000000-000-000----|
   ....... ...        ....... ... ...


                   Let palm mutes ring from here until end
D|---------------|-----------------|
A|---------------|-----------------|
F|---------------|-----------------|
C|---------------|-----------------|
G|-0000000--0--0-|-0000000-000-000-| x3(2nd section)
C|-0000000--0--0-|-0000000-000-000-|
   .......  .  .   ....... ... ...

D|---------------|-----------------|
A|---------------|-----------------|
F|---------------|-----------------|
C|---------------|-----------------|
G|-0000000--0--0-|-0000000-000-000-| x4(2nd section)
C|-0000000—-0--0-|-0000000-000-000-|
   .......  .  .   ....... ... ...


D|---------|
A|---------|
F|---------|
C|---------|
G|-0000000-|
C|-0000000-|
   .......

WHEW!!!!!!!!!!!

| /  slide up
| \  slide down
| h  hammer-on
| p  pull-off
| ~  vibrato
| *  harmonic
| x  Mute note
=======================================================================
Добавлено: 18.07.2012
Другие материалы по этой песне:
  • Аккорды и текст

Страница создана 19.05.2012
http://primanota.ru/it-dies-today/bridges-left-burning-chords.htm
Привет, Гость.
Предлагаем пройти революционный курс по гитаре.
Подарок от PrimaNota.Ru, забирай!