PrimaNota.ru - самый крупный в мире бесплатный архив песенных текстов, аккордов, табулатур и нот


It Dies Today - Black Bile White Lies - текст песни, таба, видео

Регистрация Запомнить меня
Войти через:  Facebook Google Twitter Vk Yandex Mail.ru

It Dies Today - Black Bile White Lies - текст песни, таба, видео

Печатать
Просмотров: 111
TUNING: DROP B

KEY:
/ Slide
. Palm Mute
h Hammer On
p Pull Off
t Tap
* Pinch Harmonic



VERSE
|-----------------------------------------------------------------|
|-----------------------------------------------------------------|
|-----------------------------------------------------------------|
|-3---------2-------2-----3---------------------------------------|
|---5---5-------1---------------5---------------------------------|
|-----0---0---0---0---0-0---0-0---0-0-0-0---0-0-0---0-0-0---0-0-0-|
|     .   .   .   .   . .   . .   . . .     . .     . .     . . . |
|-----------------------------------------------------------------|
|-----------------------------------------------------------------|
|-----------------------------------------------------------------|
|-7---------5-------5-----7---------------------------------------|
|---8---8-------5---------------8---------------------------------|
|-----0---0---0---0---0-0---0-0---0-0-0-0---0-0-0---0-0-0---0-0-0-|
      .   .   .   .   . .   . .   . . .     . .     . .     . . .

|-----------------------------------------------------------------|
|-----------------------------------------------------------------|
|-----------------------------------------------------------------|
|-3---------2-------2-----3-----2---------------------3---2-------|
|---5---5-------1---------------------5-----3---5-------------3h5-|
|-----0---0---0---0---0-0---0-0---0-0---0-0---0---0-0---0---0-----|
|     .   .   .   .   . .   . .   . .   . .   .   . .   .   .     |
|-----------------------------------------------------------------|
|-----------------------------------------------------------------|
|-----------------------------------------------------------------|
|-7---------5-------5-----7-----5---------------------7---5-------|
|---8---8-------5---------------------8-----7---8-------------7h8-|
|-----0---0---0---0---0-0---0-0---0-0---0-0---0---0-0---0---0-----|
      .   .   .   .   . .   . .   . .   . .   .   . .   .   .

PRE-CHORUS
|-------------------------------------------------|
|-------------------------------------------------|
|-------------------------------------------------|
|-2--2--2--2--2--2--2--2--3--3--3--3--7--7--7--7--|
|-2--2--2--2--2--2--2--2--3--3--3--3--7--7--7--7--|
|-2--2--2--2--2--2--2--2--3--3--3--3--7--7--7--7--|
|                                                 |
|-------------------------------------------------|
|-------------------------------------------------|
|----------9-----------10----------14----------9--|
|------10----------10----------10----------10-----|
|-/12---------/12---------/12---------/12---------|
|-------------------------------------------------|

CHORUS
|-----------------------------------------------------------------|
|-----------------------------------------------------------------|
|-----------------------------------------------------------------|
|-0---0---0---0---0---0---0---0---0---0---0---0---0---0---0---0---|
|-0---0---0---0---0---0---0---0---0---0---0---0---0---0---0---0---|
|-0---0---0---0---0---0---0---0---0---0---0---0---0---0---0---0---|
|                                                                 |
|-----------------------------------------------------------------|
|-----------------------------------------------------------------|
|-10p7--5---9---4---5---9---5-4---10p7--5---9---4---5---9---5-4---|
|-----0---0---0---0---0---0-----7-----0---0---0---0---0---0-----7-|
|-----------------------------------------------------------------|
|-----------------------------------------------------------------|
      .   .   .   .   .   .           .   .   .   .   .   .

|-----------------------------------------------------------------|
|-----------------------------------------------------------------|
|-----------------------------------------------------------------|
|-10--10--10--10--10--10--10--10--5---5---5---5---5---5---5---5---|
|-10--10--10--10--10--10--10--10--5---5---5---5---5---5---5---5---|
|-10--10--10--10--10--10--10--10--5---5---5---5---5---5---5---5---|
|                                                                 |
|-----------------------------------------------------------------|
|-----------------------------------------------------------------|
|-2---------7---2-------------7---2---------7---2-------------7---|
|---0-2h3-0---0---0-2-0-2h3-0---0---0-2h3-0---0---0-2-0-2h3-0---0-|
|-----------------------------------------------------------------|
|-----------------------------------------------------------------|
    .     .   .   .   .     .   .   .     .   .   .   .     .   .

|-----------------------------------------------------------------|
|-----------------------------------------------------------------|
|-----------------------------------------------------------------|
|-0---0---0---0---0---0---0---0---0---0---0---0---0---0---0---0---|
|-0---0---0---0---0---0---0---0---0---0---0---0---0---0---0---0---|
|-0---0---0---0---0---0---0---0---0---0---0---0---0---0---0---0---|
|                                                                 |
|-----------------------------------------------------------------|
|-----------------------------------------------------------------|
|-10p7--5---9---4---5---9---5-4---10p7--5---9---4---5---9---5-4---|
|-----0---0---0---0---0---0-----7-----0---0---0---0---0---0-----7-|
|-----------------------------------------------------------------|
|-----------------------------------------------------------------|
      .   .   .   .   .   .           .   .   .   .   .   .

|-----------------------------------------------------------------|
|-----------------------------------------------------------------|
|-----------------------------------------------------------------|
|-10--10--10--10--10--10--10--10--5---5---5---5-------------------|
|-10--10--10--10--10--10--10--10--5---5---5---5-------------------|
|-10--10--10--10--10--10--10--10--5---5---5---5-----7p5-0-5-0-7-0-|
|                                                       .   .   . |
|-----------------------------------------------------------------|
|-----------------------------------------------------------------|
|-2---------7---2-------------7---2---------7---2-----------------|
|---0-2h3-0---0---0-2-0-2h3-0---0---0-2h3-0---0---0-7p5---5---7---|
|-----------------------------------------------------------------|
|-------------------------------------------------------0---0---0-|
    .     .   .   .   .     .   .   .     .   .   .     .   .   .

[VERSE]

[PRE-CHORUS]

[CHORUS]

BRIDGE
|---------------------------------------------------------------|
|---------------------------------------------------------------|
|---------------------------------------------------------------|
|---------------------------------------------------------------|
|---------------------------------------------------------------|
|-0--000-0-0-0-0-0--000-0-0-0-0-0--000-0-0-0--0-8-5-0-5-0-7-0-0-|
     ...   .   .    ...   .   .    ...   .    .     .   .   . .

SOLO RIFF
|----------------------------------------------------------------|
|----------------------------------------------------------------|
|----------------------------------------------------------------|
|----------------------------------------------------------------|
|----------------------------------------------------------------|
|-2--222-2-2-2-2-2--222-2-2-2-2-2--222-2-2-2--2-10-7-7-7-7-9-7-7-|
     ...   .   .    ...   .   .    ...   .    .      .   .   . .

|---------------------------------------------------------------|
|---------------------------------------------------------------|
|---------------------------------------------------------------|
|---------------------------------------------------------------|
|---------------------------------------------------------------|
|-0--000-0-0-0-0-0--000-0-0-0-0-0--000-0-0-0--0-8-5-0-5-0-7-0-0-|
     ...   .   .    ...   .   .    ...   .    .     .   .   . .

SOLO (something along these lines, not exact)
|-------------------------------------------------------------------|
|-17--17-17--17-17--17-17--17-17-----------17-------------------22--|
|---------------------------------16-17-19----19-17-16----16-17-----|
|------------------------------------------------------17-----------|
|-------------------------------------------------------------------|
|-------------------------------------------------------------------|

|-/16-18-20-20--16-15----------------------------------|
|---------------------17-------------------------------|
|------------------------16--16h17p16-----12h14p12-----|
|-------------------------------------17-----------16--|
|------------------------------------------------------|
|------------------------------------------------------|

|--------------------------------------------------------------------------|
|--------------------------------17t13p12--15t12p10-------------------*10--|
|-------*16------------------------------------------14t10p9--12t9p7-------|
|-------------------19---17------------------------------------------------|
|-/17---------14------------17---------------------------------------------|
|----------------17--------------------------------------------------------|

[PRE-CHORUS]

[CHORUS]

EXIT
|---------------------------------|
|---------------------------------|
|---------------------------------|
|-0-------------------------------|
|-0-------------------------------|
|-0-------------------------------|
Добавлено: 27.02.2012
Другие материалы по этой песне:
  • Аккорды и текст

Страница создана 27.02.2012
http://primanota.ru/it-dies-today/black-bile-white-lies-chords.htm
Привет, Гость.
Предлагаем пройти революционный курс по гитаре.
Подарок от PrimaNota.Ru, забирай!