PrimaNota.ru - самый крупный в мире бесплатный архив песенных текстов, аккордов, табулатур и нот


It Dies Today - A Threnody For Modern Romance - текст песни, таба, бас-таба, видео

Регистрация Запомнить меня
Войти через:  Facebook Google Twitter Vk Yandex Mail.ru

It Dies Today - A Threnody For Modern Romance - текст песни, таба, бас-таба, видео

Печатать
Просмотров: 229
Artist: It Dies Today
Song: A Threnody for Modern Romance
Album: The Caitiff Choir
Tabber: NerdyBassPlayer 

Tuning: Drop C (CGCFAD)

Intro 
D|--------------------------------------------------------|
A|--------------------------------------------------------|
F|--------------------------------------------------------|
C|-------------------3-2--------------------------3-2---5-|
G|-000-000-000-000-3-----5-3-0--000-000-000-000-3-----5---|
C|-000-000-000-000-----------0--000-000-000-000-----------|
   ... ... ... ...              ... ... ... ...

D|--------------------------------------------|
A|--------------------------------------------|
F|------------------------------------3-3-5-5-|
C|-------------------3-2------5-5-3-3-3-3-5-5-|
G|-000-000-000-000-3-----5-3--5-5-3-3-1-1-3-3-|
C|-000-000-000-000------------5-5-3-3---------|
   ... ... ... ...

Verse
D|-----------------------------------------------------|
A|-----------------------------------------------------|
F|------------------------------5-5--------------------|
C|---2-----5-3-2-3p2-555555-3-3-5-5----2-----5-3-2-3p2-|
G|-0---3-0-----------555555-3-3-3-3--0---3-0-----------|
C|-0-----------------555555-3-3------0-----------------|

D|-----------------------------------------|
A|-----------------------------------------|
F|1010101010101010-14-14-14-14-12-12-12-12-|
C|-x-x-x-x-x-x-x-x--x--x--x--x--x--x--x--x-|
G|-8-8-8-8-8-8-8-8-12-12-12-12-10-10-10-10-|
C|-----------------------------------------|

Chorus
D|------------------------------------------------------------------------|
A|------------------------------------------------------------------------|
F|--------------------------------------------------------------------5-5-|
C|----7h8p7---3-3-5-5-5-5-7-7-8-8-1010----7h8p7---3-3-5-5-5555555-1-1-5-5-|
G|-00-------8-3-3-3-3-5-5-5-5-8-8-8-8--00-------8-3-3-3-3-3333333-1-1-3-3-|
C|-00---------3-3-3-3-5-5-5-5-8-8-8-8--00---------3-3-3-3-2222222-1-1-----|

D|-------------------------------------------------------|
A|-------------------------------------------------------|
F|-------------------------------------------------------|
C|----7h8p7---3-3-5-5-5-5-7-7-8-8-1010-33333333333333333-|
G|-00-------8-3-3-3-3-5-5-5-5-8-8-8-8--11111111111111111-|
C|-00---------3-3-3-3-5-5-5-5-8-8-8-8--11111111111111111-|

Bridge 1
D|-------------------------------------------------|
A|-------------------------------------------------|
F|-------------------------------------------------|
C|-------------------------------------------------|
G|-000-000-000-000-000-000-000-000-0-0-0-0-0-0-0-0-|
C|-000-000-000-000-000-000-000-000-0-0-0-0-0-0-0-0-|
   ... ... ... ... ... ... ... ... . . . . . . . .

D|----------------------------------------------------------------|
A|----------------------------------------------------------------|
F|----------------------------------------------------------------|
C|--------------------------------------------2-----------3-------|
G|-00-0000-00-0000-00--00-0000-00-0000-00---5-----3-5---5-----0-3-|
C|-00-0000-00-0000-00--00-0000-00-0000-00-0-----0-----0-----0-----|

Verse

Fill
D|---------------------------|
A|---------------------------|
F|---------9-7-----5555-7777-|
C|-----7-9-----9-7-5555-7777-|
G|-0-7-------------3333-5555-|
C|---------------------------|
   . . . . . . . .

Chorus

Bridge
Добавлено: 05.05.2012
Другие материалы по этой песне:

Страница создана 11.03.2012
http://primanota.ru/it-dies-today/a-threnody-for-modern-romance-chords.htm
Привет, Гость.
Предлагаем пройти революционный курс по гитаре.
Подарок от PrimaNota.Ru, забирай!