PrimaNota.ru - самый крупный в мире бесплатный архив песенных текстов, аккордов, табулатур и нот


It Dies Today - A Romance By The Wings Of Icarus - текст песни, таба, видео

Регистрация Запомнить меня
Войти через:  Facebook Google Twitter Vk Yandex Mail.ru

It Dies Today - A Romance By The Wings Of Icarus - текст песни, таба, видео

Печатать
Просмотров: 117
tabbed by: david
email: masoda169@yahoo.com
Band:  It Dies Today
Song:  A Romance By The Wings Of Icarus
Album: Forever Scorned
Tuning: (low to high) C G C F A D

~ = let ring    . = palm mute
\ = slide       * = pinched harmonic
h = hammer on   p = pull off
' = tremlo pick

intro
(0:00)
D---------------------------------------------------------------------------|
A---------------------------------------------------------------------------|
F---------------------------------------------------------------------------|
C-----7-----7-----8----8----8---------7--5~-3~-5----5-----------------------|
G---8---8-----8-----8----8----8-----8----7~-5~---7----7---------------------|
C-0-------0-----0-----0----0----0-0----------------0----0-------------------|
(0:09)
D---------------------------------------------------------------------------|
A---------------------------------------------------------------------------|
F---------------------------------------------------------------------------|
C-----7-----7-----8----8----8-----7\5-5-5\3-3-3\2-2-2\3-3-3\5---------------|
G---8---8-----8-----8----8----8---8\7-7-7\5-5-5\4-4-4\5-5-5\7---------------|
C-0-------0-----0-----0----0----0-------------------------------------------|
(0:17)
D---------------------------------------------------------------------------|
A---------------------------------------------------------------------------|
F---------------------------------------------------------------------------|
C-----7-----7-----8----10---10----7\5-5-5\10-10-10\7-7-7\5-5-5\3------------|
G---8---8-----8-----8----8----8---8\7-7-7\8--8--8-\8-8-8\7-7-7\5------------|
C-0-------0-----0-----0----0----0-------------------------------------------|
(0:25)                              (0:28)
D---------------------------------|-----------------------------------------|
A---------------------------------|-----------------------------------------|
F---------------------------------|-----------------------------------------|
C-----7-----7-----8----8----8-----|-0-0-0-0-0-0-0-0-0-0-0-0-0---------------|
G---8---8-----8-----8----8----8---|-0-0-0-0-0-0-0-0-0-0-0-0-0---------------|
C-0-------0-----0-----0-----0---0-|-0-0-0-0-0-0-0-0-0-0-0-0-0---------------|
                                    . . . . . . . . . . . . .
 intro part two (0:32) play 4x
D---------------------------------------------------------------------------|
A---------------------------------------------------------------------------|
F---------------------------------------------------------------------------|
C-7---7---7---7---7-----5---5---5-2---2-------------------------------------|
G-8---8---8---8---8-----7---7---7-4---4-------------------------------------|
C--0-0-0-0-0-0-0-0-0-0-0-0-0-0-0-0-0-0--------------------------------------|
   . . . . . . . . . . . . . . . . . .

(1:01) play 2x          (1:16)
D---------------------|-----------------------------------------------------|
A---------------------|-----------------------------------------------------|
F---------------------|-----------------------------------------------------|
C---------------------|-0~-0~-0~-0~-----------------------------------------|
G-8'--7'--4'----------|-0~-0~-0~-0~-----------------------------------------|
C---------------------|-0~-0~-0~-0~-----------------------------------------|
                        .  .  .  .

 first breakdown (1:21) play 4x
D---------------------------------------------------------------------------|
A---------------------------------------------------------------------------|
F---------------------------------------------------------------------------|
C-0~------------------------------------------------------------------------|
G-0~-----0-----0----------------------5*------------------------------------|
C-0~-000-0-000-0-8-5-7-10-7-8-11-8-10---------------------------------------|
  .  ... . ... . . . . . . . . . . .

verse (1:43) play 2x
D---------------------------------------------------------------------------|
A---------------------------------------------------------------------------|
F---------------------------------------------------------------------------|
C-0-------------------------4-4-x4-1-1-x1-----------------------------------|
G-0-------------------------4-4-x4-1-1-x1-----------------------------------|
C-0-0-0-000-0-0-000-0-0-000-4-4-x4-1-1-x1-----------------------------------|
    . . ... . . ... . . ...

verse part two (1:52) play 4x
D---------------------------------------------------------------------------|
A---------------------------------------------------------------------------|
F---------------------------------------------------------------------------|
C-0--------0--------4-------------------------------------------------------|
G-0--5-5h6-0--5-5h6-4--5-5h6--9-8p6-8-6p5-----------------------------------|
C-0-0-0----0-0-0----4-0-0---0-----------------------------------------------|
    . .      . .      . .   .

post verse (2:12) play 4x
D---------------------------------------------------------------------------|
A---------------------------------------------------------------------------|
F---------------------------------------------------------------------------|
C-0-----0-----0-----0-------------0-----0-----0-----0-----------------------|
G-0-4\5-0-5\7-0-7\8-0-10---8---7--0-4\5-0-5\7-0-7\8-0-10---8---4------------|
C-0-----0-----0-----0----0---0----0-----0-----0-----0----0---0--------------|
  .     .     .     .    .   .    .     .     .     .    .   .

break down behind post verse (2:12) play 2x
D---------------------------------------------------------------------------|
A---------------------------------------------------------------------------|
F---------------------------------------------------------------------------|
C-0--0--------0--0----------------0--0--------0--0--------------------------|
G-0--0--------0--0----------------0--0--------0--0--------------------------|
C-0--0--------0--0----------------0--0--------0--0--------------------------|
  .  .        .  .                .  .        .  .

post verse harmonization (2:25) play 2x
D---------------------------------------------------------------------------|
A---------------------------------------------------------------------------|
F---------------------------------------------------------------------------|
C-0-2\3-0-3\5-0-5\7-0-8---7---5--0-2\3-0-3\5-0-5\7-0-8---7---2--------------|
G-0-----0-----0-----0------------0-----0-----0-----0------------------------|
C-0-----0-----0-----0---0---0----0-----0-----0-----0---0---0----------------|
  .     .     .     .   .   .    .     .     .     .   .   .

second breakdown (2:38)         quick riff (3:02)
play 8x
D------------------------|--------------------------------------------------|
A------------------------|--------------------------------------------------|
F------------------------|--------------------------------------------------|
C-0-0-----0--------------|--------------------------------------------------|
G-0-0-----0--------------|-2-----4-----2-----2-----4-----5-----4-------2----|
C-0-0-000-0-8-5-7-10-7-8-|---5-4---5-4---5-4---5-4---5-4---5-4---5-4-5------|
  . . ... . . . . .  . .     . .   . .   . .   . .   . .   . .   . . .

                                                              play 3x
third breakdown  (3:06)     play 1x                           3rd bd cont'd
D-----------------------------------------------------------|----------------|
A-----------------------------------------------------------|----------------|
F-----------------------------------------------------------|----------------|
C-0-1-3---0-1-3-1-4-3-0-1-3-1-3--4-3-0-1-3--4-3-0-1-666-444-|-0-1-3--4-3-1-3-|
G-0-1-3---0-1-3-1-4-3-0-1-3-1-3--4-3-0-1-3--4-3-0-1-666-444-|-0-1-3--4-3-1-3-|
C-0-1-3---0-1-3-1-4-3-0-1-3-1-3--4-3-0-1-3--4-3-0-1-666-444-|-0-1-3--4-3-1-3-|
  . . .   . . . . . . . . . . .  . . . . .  . . . . ... ...   . . .  . . . .

D---------------------------------------------------------------------------|
A---------------------------------------------------------------------------|
F---------------------------------------------------------------------------|
C-4-3-0-1-3--4-3-0-1-666-444------------------------------------------------|
G-4-3-0-1-3--4-3-0-1-666-444------------------------------------------------|
C-4-3-0-1-3--4-3-0-1-666-444------------------------------------------------|
  . . . . .  . . . . ... ...

repeat verse and verse part two (3:33)

  quick strumming riff  (4:02)                          end on this
D-----------------------------------------------------------------|---------|
A-----------------------------------------------------------------|---------|
F-----------------------------------------------------------------|---------|
C-0-0-0-0-0-0-0-0-0-0-0-0-0-0-0-0-4-4-4-4-4-4-4-4-1-1-1-1-1-1-1-1-|-1-------|
G-0-0-0-0-0-0-0-0-0-0-0-0-0-0-0-0-4-4-4-4-4-4-4-4-1-1-1-1-1-1-1-1-|-1-------|
C-0-0-0-0-0-0-0-0-0-0-0-0-0-0-0-0-4-4-4-4-4-4-4-4-1-1-1-1-1-1-1-1-|-1-------|

Really long amazing breakdown
(4:21) play til end of song
D---------------------------------------------------------------------------|
A---------------------------------------------------------------------------|
F---------------------------------------------------------------------------|
C-0-0--0-0-0-0-----0-0-0--0-0-0-0-------------------------------------------|
G-0-0--0-0-0-0-----0-0-0--0-0-0-0-------------------------------------------|
C-0-0--0-0-0-0-----0-0-0--0-0-0-0-------------------------------------------|
  . .  . . . .     . . .  . . . .
Добавлено: 23.04.2012
Другие материалы по этой песне:
  • Аккорды и текст

Страница создана 23.04.2012
http://primanota.ru/it-dies-today/a-romance-by-the-wings-of-icarus-chords.htm
Привет, Гость.
Предлагаем пройти революционный курс по гитаре.
Подарок от PrimaNota.Ru, забирай!