PrimaNota.ru - самый крупный в мире бесплатный архив песенных текстов, аккордов, табулатур и нот


It Dies Today - Constant Reminder - текст песни, таба, видео

Регистрация Запомнить меня
Войти через:  Facebook Google Twitter Vk Yandex Mail.ru

It Dies Today - Constant Reminder - текст песни, таба, видео

Печатать
Просмотров: 179
I know It Dies Today play it in Drop C, but this is in Drop D. If your guitar is in C, 
each note a step lower.


|-----------------------------------------------------------|
|-----------------------------------------------------------|
|----6h7-6h4----6h7-6h7-6h4-44----6h7-6h4----6h7-10-9-7-----|
|-00---------00----------------00---------00----------------|
|-----------------------------------------------------------|
|-----------------------------------------------------------|(x3)

|-----------------------------------------------------------|
|-----------------------------------------------------------|
|----6h7-6h4----6h7-6h7-6h4-44----6h7-6h4----6h7-11-10-7----|
|-00---------00----------------00---------00----------------|
|-----------------------------------------------------------|
|-----------------------------------------------------------|
Добавлено: 19.05.2012
Другие материалы по этой песне:

Страница создана 05.04.2012
http://primanota.ru/it-dies-today/a-constant-reminder-chords.htm
Привет, Гость.
Предлагаем пройти революционный курс по гитаре.
Подарок от PrimaNota.Ru, забирай!