PrimaNota.ru - самый крупный в мире бесплатный архив песенных текстов, аккордов, табулатур и нот


Issues - Love Sex Riot - таба, видео

Регистрация Запомнить меня
Войти через:  Facebook Google Twitter Vk Yandex Mail.ru

Issues - Love Sex Riot - таба, видео

Печатать
Просмотров: 137
-------------------------------------------------------------------------------------------------
                                   ISSUES - "Love. Sex. Riot."       
-------------------------------------------------------------------------------------------------

Band: ISSUES
Song: Love. Sex. Riot. (ft. Fronz)
Album: Black Diamonds EP
Track: 5

Tabbed by: Matthew Langston
Email: mattack_mattack@aol.com

Tuning: Drop A# (A# F A# D# G C)
                (Bb F Bb Eb G C)



[0:00 - 0:23]

C |-------------------------------------|------------------------|
G |-------------------------------------|------------------------|
D#|-------------------------------------|------------------------|
A#|-------------------------------------|------------------------|
F |-------------------------------------|------------------------|
A#|--0-1-0~---4-1~--0~--0-1-0~---1b--0--|--4-1-0~----1b--0~---1--|

Swerve

C |-------------------------------------|-----------------------------------|
G |-------------------------------------|-----------------------------------|
D#|-------------------------------------|-----------------------------------|
A#|-------------------------------------|-----------------------------------|
F |-------------------------------------|-----------------------------------|
A#|--0-1-0~---4-1~--0~--0-1-0~---1b--0--|--4-1-0~----1b--0~---1~--2b~-0-1b--|

C |-------------------------------------|-------------------|
G |-------------------------------------|-------------------|
D#|-------------------------------------|-------------------|
A#|-------------------------------------|-------------------|
F |-------------------------------------|-------------------|
A#|--0-1-0~---4-1~--0~--0-1-0~---1b--0--|--4-1-0~----1b--0--|

Put your hands up!

C |-------------------------------------|-----------------------------------|
G |-------------------------------------|-----------------------------------|
D#|-------------------------------------|-----------------------------------|
A#|-------------------------------------|-----------------------------------|
F |-------------------------------------|-----------------------------------|
A#|--0-1-0~---4-1~--0~--0-1-0~---1b--0--|--4-1-0~----1b--0~---1~--2b~-0-1b--|

C |-------------------------------------|-----------------------------------|
G |-------------------------------------|-----------------------------------|
D#|-------------------------------------|-----------------------------------|
A#|-------------------------------------|-----------------------------------|
F |-------------------------------------|-----------------------------------|
A#|--0-1-0~---4-1~--0~--0-1-0~---1b--0--|--4-1-0~----1b--0~---1~--2b~-0-1b--|



[0:24 - 0:42]

C |------------------------------------------------------------------|
G |------------------------------------------------------------------|
D#|------------------------------------------------------------------|
A#|--0-0-0~--0-0~--0-0-0-0-0~--0~--0-0-0-0~----0-0-0~--0~--0~--0-0~--|
F |--0-0-0~--0-0~--0-0-0-0-0~--0~--0-0-0-0~----0-0-0~--0~--0~--0-0~--|
A#|--1-1-1~--1-1~--1-1-1-1-1~--1~--1-1-1-1~----1-1-1~--1~--1~--1-1~--|
     . . .   . .   . . . . .   .   . . . .     . . .   .   .   . .

C |------------------------------------------------------------------|
G |------------------------------------------------------------------|
D#|------------------------------------------------------------------|
A#|--0-0-0~--0-0~--0-0-0-0-0~--0~--0-0-0-0~----0-0-0~--0~--0~--0-0~--|
F |--0-0-0~--0-0~--0-0-0-0-0~--0~--0-0-0-0~----0-0-0~--0~--0~--0-0~--|
A#|--1-1-1~--1-1~--1-1-1-1-1~--1~--1-1-1-1~----1-1-1~--1~--1~--1-1~--|
     . . .   . .   . . . . .   .   . . . .     . . .   .   .   . .

C |-----------------------------------------------------------|
G |-----------------------------------------------------------|
D#|-----------------------------------------------------------|
A#|--0-0-0--0000---0-0-0--0~--0-0000--0-0-0---0~--0-0~--0-0~--|
F |--0-0-0--0000---0-0-0--0~--0-0000--0-0-0---0~--0-0~--0-0~--|
A#|--1-1-1--1111---1-1-1--1~--1-1111--1-1-1---1~--1-1~--1-1~--|
     . . .  ....   . . .  .   . ....  . . .   .   . .   . .

C |-----------------------------------------------------------|
G |-----------------------------------------------------------|
D#|-----------------------------------------------------------|
A#|--0-0-0--0000---0-0-0--0~--0-0000--0-0-0---0~--0-0~--0-0~--|
F |--0-0-0--0000---0-0-0--0~--0-0000--0-0-0---0~--0-0~--0-0~--|
A#|--1-1-1--1111---1-1-1--1~--1-1111--1-1-1---1~--1-1~--1-1~--|
     . . .  ....   . . .  .   . ....  . . .   .   . .   . .



[0:43 - 1:11]

C |-----------------------------------------------------------------------|
G |-----------------------------------------------------------------------|
D#|-----------------------------------------------------------------------|
A#|-----------------------------------------------------------------------|
F |-----------------------------------------------------------------------|
A#|--0-0-0-0-0-0-10-10-10-10-5-5-5-5-7-7-8-8-8-8-8-8-8-8-8\5-5-5-1-1-1-3--|

C |-----------------------------------------------------------------------|
G |-----------------------------------------------------------------------|
D#|-----------------------------------------------------------------------|
A#|-----------------------------------------------------------------------|
F |-----------------------------------------------------------------------|
A#|--0-0-0-0-0-0-10-10-10-10-5-5-5-5-7-7-8-8-8-8-8-8-8-8-8\5-5-5-1-1-1-3--|

C |-----------------------------------------------------------------------|
G |-----------------------------------------------------------------------|
D#|-----------------------------------------------------------------------|
A#|-----------------------------------------------------------------------|
F |-----------------------------------------------------------------------|
A#|--0-0-0-0-0-0-10-10-10-10-5-5-5-5-7-7-8-8-8-8-8-8-8-8-8\5-5-5-1-1-1-3--|

C |-----------------------------------------------------------------------|
G |-----------------------------------------------------------------------|
D#|-----------------------------------------------------------------------|
A#|-----------------------------------------------------------------------|
F |-----------------------------------------------------------------------|
A#|--0-0-0-0-0-0-10-10-10-10-5-5-5-5-7-7-8-8-8-8-8-8-8-8-8\5-5-5-1-1-1-3--|

Love. Sex. Riot. So exciting...



[1:12 - 1:40]

Alright... let's do this!

C |-------------------------------------|-----------------------------------|
G |-------------------------------------|-----------------------------------|
D#|-------------------------------------|-----------------------------------|
A#|-------------------------------------|-----------------------------------|
F |-------------------------------------|-----------------------------------|
A#|--0-1-0~---4-1~--0~--0-1-0~---1b--0--|--4-1-0~----1b--0~---1~--2b~-0-1b--|

C |-------------------------------------|-----------------------------------|
G |-------------------------------------|-----------------------------------|
D#|-------------------------------------|-----------------------------------|
A#|-------------------------------------|--------------------------x-x-x-x--|
F |-------------------------------------|--------------------------x-x-x-x--|
A#|--0-1-0~---4-1~--0~--0-1-0~---1b--0--|--4-1-0~----1b--0---------x-x-x-x--|

C |--------------------------------------|--------------------------------------|
G |--------------------------------------|--------------------------------------|
D#|--------------------------------------|--------------------------------------|
A#|--------------------------------------|-----------------------------x-x-x-x--|
F |--0---------------------2----------1--|-----------------------------x-x-x-x--|
A#|----4-0-1b~---0-1-2b~-----0-1~-2b~----|--0-1-0-2b~--0-1b~--0-2b~--0-x-x-x-x--|

C |--------------------------------------|--------------------------------------|
G |--------------------------------------|--------------------------------------|
D#|--------------------------------------|--------------------------------------|
A#|--------------------------------------|-----------------------------x-x-x-x--|
F |--0---------------------2----------1--|-----------------------------x-x-x-x--|
A#|----4-0-1b~---0-1-2b~-----0-1~-2b~----|--0-1-0-2b~--0-1b~--0-2b~--0-x-x-x-x--|

C |------------------------------------------------|--------------------------------------|
G |------------------------------------------------|--------------------------------------|
D#|------------------------------------------------|--------------------------------------|
A#|------------------------------------------------|--------------------------------------|
F |--0-0-0----0-0-0-0--0--0-0-0--0----0~--0-0-0-0--|--0-0-0----0-0-0-0--0--0-0-0--0----0--|
A#|--0-0-0----0-0-0-0--0--0-0-0--0----0~--0-0-0-0--|--0-0-0----0-0-0-0--0--0-0-0--0----0--|
     . . .    . . . .  .  . . .  .    .   . . . .     . . .    . . . .  .  . . .  .    .



[1:41 - 2:09]

C |-----------------------------------------------------------------------|
G |-----------------------------------------------------------------------|
D#|-----------------------------------------------------------------------|
A#|-----------------------------------------------------------------------|
F |-----------------------------------------------------------------------|
A#|--0-0-0-0-0-0-10-10-10-10-5-5-5-5-7-7-8-8-8-8-8-8-8-8-8\5-5-5-1-1-1-3--|

C |-----------------------------------------------------------------------|
G |-----------------------------------------------------------------------|
D#|-----------------------------------------------------------------------|
A#|-----------------------------------------------------------------------|
F |-----------------------------------------------------------------------|
A#|--0-0-0-0-0-0-10-10-10-10-5-5-5-5-7-7-8-8-8-8-8-8-8-8-8\5-5-5-1-1-1-3--|

C |-----------------------------------------------------------------------|
G |-----------------------------------------------------------------------|
D#|-----------------------------------------------------------------------|
A#|-----------------------------------------------------------------------|
F |-----------------------------------------------------------------------|
A#|--0-0-0-0-0-0-10-10-10-10-5-5-5-5-7-7-8-8-8-8-8-8-8-8-8\5-5-5-1-1-1-3--|

C |-----------------------------------------------------------------------|
G |-----------------------------------------------------------------------|
D#|-----------------------------------------------------------------------|
A#|-----------------------------------------------------------------------|
F |-----------------------------------------------------------------------|
A#|--0-0-0-0-0-0-10-10-10-10-5-5-5-5-7-7-8-8-8-8-8-8-8-8-8\5-5-5-1-1-1-3--|

Love. Sex. Riot. So exciting...



[2:10 - 2:40]

FUCK YEAH!

C |------------------------------------|-------------------------------|
G |------------------------------------|-------------------------------|
D#|------------------------------------|-------------------------------|
A#|------------------------------------|-------------------------------|
F |-----------------------0~-----------|--0-------0-0--0--0-0-0--0--0--|
A#|--0--0~--0-7~----0-0-3-----1-1-2-0--|----3-0~--0-0--0--0-0-0--0--0--|
                                                  . .  .  . . .  .  .

C |------------------------------------|----------------------------------------|
G |------------------------------------|----------------------------------------|
D#|------------------------------------|----------------------------------------|
A#|------------------------------------|----------------------------------------|
F |-----------------------0~-----------|----------------------------------------|
A#|--0--0~--0-7~----0-0-3-----1-1-2-0--|--10-10-10-10-10\8-8-8-8\7-7-7-7\5-5-5--|

C |------------------------------------|-------------------------------|
G |------------------------------------|-------------------------------|
D#|------------------------------------|-------------------------------|
A#|------------------------------------|-------------------------------|
F |-----------------------0~-----------|--0-------0-0--0--0-0-0--0--0--|
A#|--0--0~--0-7~----0-0-3-----1-1-2-0--|----3-0~--0-0--0--0-0-0--0--0--|
                                                  . .  .  . . .  .  .

C |------------------------------------|----------------------------------------|
G |------------------------------------|----------------------------------------|
D#|------------------------------------|----------------------------------------|
A#|------------------------------------|----------------------------------------|
F |-----------------------0~-----------|----------------------------------------|
A#|--0--0~--0-7~----0-0-3-----1-1-2-0--|--10-10-10-10-10\8-8-8-8\7-7-7-7\5-5-5--|

C |---------------------------------|----------------------------------|
G |---------------------------------|----------------------------------|
D#|---------------------------------|----------------------------------|
A#|-----------------3p0-------------|-----------------7----------------|
F |--0-----------------------3/5----|--0-----------------------10p0----|
A#|----000-0-0-0-0------0-0------0--|----000-0-0-0-0----8-0-0-------0--|
       ..    .          .                ..    .          .

C |---------------------------------|----------------------------------------|
G |---------------------------------|----------------------------------------|
D#|---------------------------------|----------------------------------------|
A#|-----------------3p0-------------|----------------------------------------|
F |--0-----------------------3/5----|----------------------------------------|
A#|----000-0-0-0-0------0-0------0--|--10-10-10-10-10\8-8-8-8\7-7-7-7\5-5-5--|



[2:40 - 2:52]

C |-------------------------------------|
G |-------------------------------------|
D#|-------------------------------------|
A#|-------------------------------------|
F |------------------8------------------|
A#|--0---0-0-7---0-0---7---0-1br-0-0-0--|

GO!

C |------------------------------------------------|----------------------------------------------|
G |------------------------------------------------|----------------------------------------------|
D#|------------------------------------------------|----------------------------------------------|
A#|------------------------------------------------|----------------------------------------------|
F |--0-0-0----0-0-0-0--0--0-0-0--0----0~--0-0-0-0--|--0-0-0----0-0-0-0--0--0-0-0--0----0~--0-0-0-0|
A#|--0-0-0----0-0-0-0--0--0-0-0--0----0~--0-0-0-0--|--0-0-0----0-0-0-0--0--0-0-0--0----0~--0-0-0-0|
     . . .    . . . .  .  . . .  .    .   . . . .     . . .    . . . .  .  . . .  .    .   . . . .



[2:53 - 3:18]

C |------------------------------------|-------------------------------|
G |------------------------------------|-------------------------------|
D#|------------------------------------|-------------------------------|
A#|------------------------------------|-------------------------------|
F |-----------------------0~-----------|--0-------0-0--0--0-0-0--0--0--|
A#|--0--0~--0-7~----0-0-3-----1-1-2-0--|----3-0~--0-0--0--0-0-0--0--0--|
                                                  . .  .  . . .  .  .

C |------------------------------------|----------------------------------------|
G |------------------------------------|----------------------------------------|
D#|------------------------------------|----------------------------------------|
A#|------------------------------------|----------------------------------------|
F |-----------------------0~-----------|----------------------------------------|
A#|--0--0~--0-7~----0-0-3-----1-1-2-0--|--10-10-10-10-10\8-8-8-8\7-7-7-7\5-5-5--|

C |------------------------------------|-------------------------------|
G |------------------------------------|-------------------------------|
D#|------------------------------------|-------------------------------|
A#|------------------------------------|-------------------------------|
F |-----------------------0~-----------|--0-------0-0--0--0-0-0--0--0--|
A#|--0--0~--0-7~----0-0-3-----1-1-2-0--|----3-0~--0-0--0--0-0-0--0--0--|
                                                  . .  .  . . .  .  .

C |------------------------------------|----------------------------------------|
G |------------------------------------|----------------------------------------|
D#|------------------------------------|----------------------------------------|
A#|------------------------------------|----------------------------------------|
F |-----------------------0~-----------|----------------------------------------|
A#|--0--0~----7~----0-0-3-----1-1-2-0--|--10-10-10-10-10\8-8-8-8\7-7-7-7\5-5-5--|

Fire, fire...



[END]



************************************

| ~   held note
| b   bend
| .   palm mute
| \   slide down
| x   mute string
| p   pull-off
| /   slide up
| br  bend, release

************************************
Добавлено: 25.06.2013
Другие материалы по этой песне:
  • Аккорды и текст

Страница создана 25.06.2013
http://primanota.ru/issues/love-sex-riot-chords.htm
Привет, Гость.
Предлагаем пройти революционный курс по гитаре.
Подарок от PrimaNota.Ru, забирай!