PrimaNota.ru - самый крупный в мире бесплатный архив песенных текстов, аккордов, табулатур и нот


Issues - King Of Amarillo - таба, видео

Регистрация Запомнить меня
Войти через:  Facebook Google Twitter Vk Yandex Mail.ru

Issues - King Of Amarillo - таба, видео

Печатать
Просмотров: 240
-----------------------------------------------------------------------------
                             King Of Amarillo by Issues
-----------------------------------------------------------------------------
Tabbed by: lukoswan
E-mail: lukoswan@live.com

http://www.facebook.com/issuesofficial http://twitter.com/issues | BUY their debut 
EP "Black Diamonds" when it drops on November 13th with Rise Records.

Tuning: 6-string: drop Bb(Bb F Bb Eb G C)=drop A#(A# F A# D# G C) 
        7-string: drop Bb(Bb F Bb Eb G C F)=drop A#(A# F A# D# G C F)

Intro:
e|--------------------------------------------------------------------------|
B|--------------------------------------------------------------------------|
G|--------------------------------------------------------------------------|
D|--------------------------------------------0-0-00------------------------|
A|--------------------------------------------0-0-00------------------------|
E|1b2-0--1b2-0-1b2-0--00000-~12-0-0-00000-1b2-0-0-00------------------------|
                      *****         *****         **
e|--------------------------------------------------------------------------|
B|--------------------------------------------------------------------------|
G|--------------------------------------------------------------------------|
D|--------------------------------------------0-0-00------------------------|
A|--------------------------------------------0-0-00------------------------|
E|1b2-0--1b2-0-1b2-0--00000-~12-0-0-00000-1b2-0-0-00------------------------|
                      *****         *****         **
Verse 1:
e|--------------------------------------------------------------------------|
B|--------------------------------------------------------------------------|
G|----2-----------------------------2---------------------------------------|
D|----3----------00-0---------------3---------------------------------------|
A|----5----------00-0-------0-------5---------0----4------------------------|
E|000---000-0-0--00-0--0-00--1--000---000-0-0--1-0--1-0---------------------|
  ***   ***      ** *           ***   ***
e|--------------------------------------------------------------------------|
B|--------------------------------------------------------------------------|
G|----2-----------------------------2---------------------------------------|
D|----3----------00-0---------------3---------------------------------------|
A|----5----------00-0-------0-------5---------0----4------------------------|
E|000---000-0-0--00-0--0-00--1--000---000-0-0--1-0--1-0---------------------|
  ***   ***      ** *           ***   ***
e|--------------------------------------------------------------------------|
B|--------------------------------------------------------------------------|
G|--------------------------------------------------------------------------|
D|0--0--0-0-0--0-0--0-000--0-0--00000-------00------------------------------|
A|0--0--0-0-0--0-0--0-000--0-0--00000--0----00------------------------------|
E|0--0--0-0-0--0-0--0-000--0-0--00000---1-0-00------------------------------|
  *  *  * * *  * *  * ***  * *  *****       **
Chorus:
e|--------------------------------------------------------------------------|
B|--------------------------------------------------------------------------|
G|--------------------------------------------------------------------------|
D|000000000000333355555555555577778888888888888888121212121212121288888833--|
A|000000000000333355555555555577778888888888888888121212121212121288888833--|
E|000000000000333355555555555577778888888888888888121212121212121288888833--|

e|--------------------------------------------------------------------------|
B|--------------------------------------------------------------------------|
G|--------------------------------------------------------------------------|
D|000000000000333355555555555577778888888888888888121212121212121288888833--|
A|000000000000333355555555555577778888888888888888121212121212121288888833--|
E|000000000000333355555555555577778888888888888888121212121212121288888833--|

(Chorus Lead):
e|--------------------------------------------------------------------------|
B|--------------------------------------------------------------------------|
G|101010101010-14s10-12-14-12-101010--17s14-14--17s14-14-14-14-14s12--------|
D|-x-x-x-x-x-x--xs-x--x--x--x--x-x-x---xs-x--x---xs-x--x--x--x--xs-x--------|
A|-8-8-8-8-8-8-12s-8-10-12-10--8-8-8--15s12-12--15s12-12-12-12-12s10--------|
E|--------------------------------------------------------------------------|

E|--------------------------------------------------------------------------|
e|--------------------------------------------------------------------------|
B|--------------------------------------------------------------------------|
G|1212121212121212101010101010101010101010101010109999999999999999----------|
D|-x-x-x-x-x-x-x-x-x-x-x-x-x-x-x-x-x-x-x-x-x-x-x-xxxxxxxxxxxxxxxxx----------|
A|1010101010101010-8-8-8-8-8-8-8-8-8-8-8-8-8-8-8-87777777777777777----------|
E|--------------------------------------------------------------------------|


Verse 2:
e|--------------------------------------------------------------------------|
B|--------------------------------------------------------------------------|
G|--------------------------------------------------------------------------|
D|--------------------------------------------------------------------------|
A|-----------------1----2-----------------00-000----------------------------|
E|12--11-11-0-11-0--1-0--1-0-1b2-0--1b2-0-11-111----------------------------|

e|--------------------------------------------------------------------------|
B|--------------------------------------------------------------------------|
G|--------------------------------------------------------------------------|
D|--------------------------------------------------------------------------|
A|-----------------1----2-----------------00-000-0--------------------------|
E|12--11-11-0-11-0--1-0--1-0-1b2-0--1b2-0-11-111-1--------------------------|

e|--------------------------------------------------------------------------|
B|--------------------------------------------------------------------------|
G|----2-----------------------------2---------------------------------------|
D|----3----------00-0---------------3---------------------------------------|
A|----5----------00-0-------0-------5---------0----4------------------------|
E|000---000-0-0--00-0--0-00--1--000---000-0-0--1-0--1-0---------------------|
  ***   ***      ** *           ***   ***
e|--------------------------------------------------------------------------|
B|--------------------------------------------------------------------------|
G|--------------------------------------------------------------------------|
D|8\1----------------8888---------33334444----------------------------------|
A|8\1----------------8888---------33334444----------------------------------|
E|8\1-0--12-8-0-00-0-8888-000-0-0-33334444----------------------------------|
                **        ***
e|--------------------------------------------------------------------------|
B|--------------------------------------------------------------------------|
G|-------------------------------10101010-9999-9s101010---------------------|
D|8\1----------------8888---------x-x-x-x-xxxx-xx-x-x-x---------------------|
A|8\1----------------8888---------8-8-8-8-7777-7s-8-8-8---------------------|
E|8\1-0--12-8-0-00-0-8888-000-0-0-------------------------------------------|
                **        ***
Chorus:
e|--------------------------------------------------------------------------|
B|--------------------------------------------------------------------------|
G|--------------------------------------------------------------------------|
D|000000000000333355555555555577778888888888888888121212121212121288888833--|
A|000000000000333355555555555577778888888888888888121212121212121288888833--|
E|000000000000333355555555555577778888888888888888121212121212121288888833--|

e|--------------------------------------------------------------------------|
B|--------------------------------------------------------------------------|
G|--------------------------------------------------------------------------|
D|000000000000333355555555555577778888888888888888121212121212121288888833--|
A|000000000000333355555555555577778888888888888888121212121212121288888833--|
E|000000000000333355555555555577778888888888888888121212121212121288888833--|

(Chorus Lead):
e|--------------------------------------------------------------------------|
B|--------------------------------------------------------------------------|
G|101010101010-14s10-12-14-12-101010--17s14-14--17s14-14-14-14-14s12--------|
D|-x-x-x-x-x-x--xs-x--x--x--x--x-x-x---xs-x--x---xs-x--x--x--x--xs-x--------|
A|-8-8-8-8-8-8-12s-8-10-12-10--8-8-8--15s12-12--15s12-12-12-12-12s10--------|
E|--------------------------------------------------------------------------|

E|--------------------------------------------------------------------------|
e|--------------------------------------------------------------------------|
B|--------------------------------------------------------------------------|
G|1212121212121212101010101010101010101010101010109999999999999999----------|
D|-x-x-x-x-x-x-x-x-x-x-x-x-x-x-x-x-x-x-x-x-x-x-x-xxxxxxxxxxxxxxxxx----------|
A|1010101010101010-8-8-8-8-8-8-8-8-8-8-8-8-8-8-8-87777777777777777----------|
E|--------------------------------------------------------------------------|

[bridge]

Breakdown:
e|--------------------------------------------------------------------------|
B|--------------------------------------------------------------------------|
G|--------------------------------------------------------------------------|
D|--------------------------------------------------------------------------|
A|--------------------------------------------------------------------------|
E|1--11-1-1----1-1--1-1-0-00-0--0-0---1b2--11-1-1----1-1--1-1-0-00-0--0-0---|
  *  ** * *    * *  * *   *                ** * *    * *  * *   *
e|--------------------------------------------------------------------------|
B|--------------------------------------------------------------------------|
G|--------------------------------2-----------------------------------------|
D|---------------------------------3----0-0---------------------------------|
A|0--0--00-0-0-0--0-0--0--0--0-------3s6--0---------------------------------|
E|1--1--11-1-1-1--1-1--1--1--1---0--0-----0---------------------------------|
  *  *  ** * * *  * *  *  *  *
Chorus:
e|--------------------------------------------------------------------------|
B|--------------------------------------------------------------------------|
G|--------------------------------------------------------------------------|
D|------------333355555555555577778888888888888888121212121212121288888833--|
A|------------333355555555555577778888888888888888121212121212121288888833--|
E|------------333355555555555577778888888888888888121212121212121288888833--|

e|--------------------------------------------------------------------------|
B|--------------------------------------------------------------------------|
G|--------------------------------------------------------------------------|
D|000000000000333355555555555577778888888888888888121212121212121288888833--|
A|000000000000333355555555555577778888888888888888121212121212121288888833--|
E|000000000000333355555555555577778888888888888888121212121212121288888833--|

(Chorus Lead):
e|--------------------------------------------------------------------------|
B|--------------------------------------------------------------------------|
G|101010101010-14s10-12-14-12-101010--17s14-14--17s14-14-14-14-14s12--------|
D|-x-x-x-x-x-x--xs-x--x--x--x--x-x-x---xs-x--x---xs-x--x--x--x--xs-x--------|
A|-8-8-8-8-8-8-12s-8-10-12-10--8-8-8--15s12-12--15s12-12-12-12-12s10--------|
E|--------------------------------------------------------------------------|

E|--------------------------------------------------------------------------|
e|--------------------------------------------------------------------------|
B|--------------------------------------------------------------------------|
G|1212121212121212101010101010101010101010101010109999999999999999----------|
D|-x-x-x-x-x-x-x-x-x-x-x-x-x-x-x-x-x-x-x-x-x-x-x-xxxxxxxxxxxxxxxxx----------|
A|1010101010101010-8-8-8-8-8-8-8-8-8-8-8-8-8-8-8-87777777777777777----------|
E|--------------------------------------------------------------------------|


Outro:
e|--------------------------------------------------------------------------|
B|--------------------------------------------------------------------------|
G|--------------------------------------------------------------------------|
D|--------------------------------------------0-0-00------------------------|
A|--------------------------------------------0-0-00------------------------|
E|1b2-0--1b2-0-1b2-0--00000-~12-0-0-00000-1b2-0-0-00------------------------|
                      *****         *****         **
e|--------------------------------------------------------------------------|
B|--------------------------------------------------------------------------|
G|--------------------------------------------------------------------------|
D|--------------------------------------------0-0-00------------------------|
A|--------------------------------------------0-0-00------------------------|
E|1b2-0--1b2-0-1b2-0--00000-~12-0-0-00000-1b2-0-0-00------------------------|
                      *****         *****         **
>>>>>>>>>>>>>>>>>>>>>>>>>>>>>>>>>>>>>>>>>>>>>>>>>>>>>>>>>>>>>>>>>>>>>>>>>>>>>

|*    palm mute
| \   slide down
| ~   vibrato
| x   Mute note
| b   Bend
Добавлено: 03.10.2013
Другие материалы по этой песне:
  • Аккорды и текст

Страница создана 07.07.2013
http://primanota.ru/issues/king-of-amarillo-chords.htm
Привет, Гость.
Предлагаем пройти революционный курс по гитаре.
Подарок от PrimaNota.Ru, забирай!