PrimaNota.ru - самый крупный в мире бесплатный архив песенных текстов, аккордов, табулатур и нот


Israel Vibration - Lift Up Your Conscience - бас-таба, видео

Регистрация Запомнить меня
Войти через:  Facebook Google Twitter Vk Yandex Mail.ru

Israel Vibration - Lift Up Your Conscience - бас-таба, видео

Печатать
Просмотров: 146
Уроки эстрадного вокала в Санкт-Петербурге
This is pretty much the whole song besides the intro and the breakdown part at 1:37.  
a really fun song to just jam out to, so enjoy!

This part kicks in at 00:18.
G ---------------------------------------------------|
D ---------------------------------------------------|
A ------3333-7777-----------7-3------3---------------|
E -5555------------5--3h5-5-----5--5---2-------------|

G ---------------------------------------------------|
D -------------555------5----------------------------|
A -------4h555-----5--5---5--------------------------|
E -2h333--------------------3--2h3-0-7-5-3-----------|

Here's the slight variation for the second part.
G ---------------------------------------------------|
D -------------555-----55--55------------------------|
A -------4h555-----5--5---5--------------------------|
E -2h333-----------------------2h3-0-7-5-3-----------|

http://www.rasrecords.com/israelvibration/
Добавлено: 19.06.2012
Другие материалы по этой песне:
  • Аккорды и текст

Страница создана 19.06.2012
http://primanota.ru/israel-vibration/lift-up-your-conscience-chords.htm
Привет, Гость.
Предлагаем пройти революционный курс по гитаре.
Подарок от PrimaNota.Ru, забирай!