PrimaNota.ru - самый крупный в мире бесплатный архив песенных текстов, аккордов, табулатур и нот


Isobel Campbell - You Wont Let Me Down Again (feat. Mark Lanegan) - таба, видео

Регистрация Запомнить меня
Войти через:  Facebook Google Twitter Vk Yandex Mail.ru

Isobel Campbell - You Wont Let Me Down Again (feat. Mark Lanegan) - таба, видео

Печатать
Просмотров: 99
-------------------------------------------------------------------------------
                             YOU WON'T LET ME DOWN AGAIN - Isobel Campbell & Mark Lanegan
-------------------------------------------------------------------------------
Tabbed by: RomStapleton (Romain Q.)
E-mail: -

Tuning: Standard (EADGBe)

Hi evreyone! Here's a possible tab for this GREAT song, which has not been tabbed yet
(shame). Sorry for my bad English, I'm French - I guess nobody's perfect uh?
Except Lanegan, though...

Main riff :
e|----------------------------------|
B|------3-----------3---------------|
G|------2-----------2---------------|
D|---0--0--------0--0---------------|
A|---------3b-0--------3b-0---------|
E|----------------------------------|

You sold your soul when you drank the morning dew
Down on your luck and so thirsty through and through





e|-----------------------------3------------------------------|
B|----3------------------------0------------------------------|
G|----0------------------------0------------------------------|
D|----2------------------------0------------------------------|
A|----3------------------------2------------------------------|
E|-----------------------------3------------------------------|

  A crack in the mirror tells of seven years of pain

e|----1------------------|
B|----3------------------|
G|----2------------------|
D|----3------------------|
A|----1------------------|
E|-----------------------|

  And you won't let me down again. /back to main riff


So basically this is it. This pattern is repeated throughout the song.
I'm a bit lazy about tabbing the solo, just keep in mind the key is D (I think).
Have fun! It's pretty easy to play and sing along.

Feel free to rate the tab and comment if you think the tab is completely off, if you
just can't help raving about how Isobel Campbell looks like an angel, or simply to tell me
I'm so super-totally-awesome (OK this last one was a lame attempt to earn positive 
feedback, sorry for it.)



************************************

| /   slide up
| \   slide down
| h   hammer-on
| p   pull-off
| ~   vibrato
| +   harmonic
| x   Mute note
| b   Bend
| pb  Pre-bend
| br  Bend release
| pbr Pre-bend release
| brb Bend release bend

************************************
Добавлено: 18.11.2013
Другие материалы по этой песне:
  • Аккорды и текст

Страница создана 18.11.2013
http://primanota.ru/isobel-campbell/you-wont-let-me-down-again-chords.htm
Привет, Гость.
Предлагаем пройти революционный курс по гитаре.
Подарок от PrimaNota.Ru, забирай!