PrimaNota.ru - самый крупный в мире бесплатный архив песенных текстов, аккордов, табулатур и нот


Isobel Campbell & Mark Lanegan - We Die And See Beauty Reign - таба, видео

Регистрация Запомнить меня
Войти через:  Facebook Google Twitter Vk Yandex Mail.ru

Isobel Campbell & Mark Lanegan - We Die And See Beauty Reign - таба, видео

Печатать
Просмотров: 44
-------------------------------------------------------------------------------
        WE DIE AND SEE BEAUTY REIGN - Isobel Campbell And Mark Lanegan
-------------------------------------------------------------------------------

Tuning:standard

  Gm                       x4
e|--------------------------|
B|-------3------3-1---------|
G|-----3----/2-3----3-2-----|
D|---5-------------------3--|
A|--5-----------------------|
E|-3------------------------|
  We die and see
  beauty reign  x2

  F
e|---------------------------|
B|-----1---------------------|
G|----2-------5--------------|
D|---3-----------------------|
A|--3-------8--8-------------|
E|-1-----5-8----8-5----------|
  And on and on
 
  Bb
e|---------------------------|
B|---------------------------|
G|------3--------------------|
D|--0-3---3------8-----------|
A|-1---------5-8---8---5-----|
E|---------6--------6--------|
 The final trace

  Gm
e|-----------1---------------|
B|------3-----------3-1------|
G|----2---2-----/2-3---3-2---|
D|--0----------------------3-|
A|---------------------------|
E|---------------------------|
  Shall know its place

  Gm
e|--------------------------|
B|----------------3-1-------|
G|--------3--/2-3-----3-2---|
D|----5-----------------3---|
A|--5---5-------------------|
E|-3------------------------|
  And slow erase

We die and see hosts and ghosts
We force ourselves down their throats
And walk along the old dirt track
No thoroughfare
No going back

We fucked it up
Forced the pace
Got swept along
Forged our fate
Our banks foreclose
Our fortunes fade
Our alibis are retrograde

We die and see beauty reign
We die and see beauty reign


************************************

| /   slide up
| \   slide down
| h   hammer-on
| p   pull-off
| ~   vibrato
| +   harmonic
| x   Mute note
| b   Bend
| pb  Pre-bend
| br  Bend release
| pbr Pre-bend release
| brb Bend release bend

************************************
Добавлено: 14.04.2016
Вам также может быть интересно:
Другие материалы по этой песне:
  • Аккорды и текст

Страница создана 14.04.2016
http://primanota.ru/isobel-campbell-and-mark-lanegan/we-die-and-see-beauty-reign-chords.htm
Привет, Гость.
Предлагаем пройти революционный курс по гитаре.
Подарок от PrimaNota.Ru, забирай!